Motley Crue - Dr Feelgood Chords & Tabs

 

Dr Feelgood Chords & Tabs

Motley Crue Chords & Tabs

Version: 3 Type: Bass Tab 0 ratings
1 star 2 stars 3 stars 4 stars 5 stars
comments

Dr Feelgood Bass Tab

   
-Drop D tuning
-Be sure to play this song in a "sleezy" type of swing.

G|-----------------------------------------------|
D|-----------------------------------------------| Repeat until
A|-----------------------------------------------| around 0:30
D|-0-0-0-00-00-0-0-0-0-0-00-00-0-0-0-0-0-00-00-0-|
[ Tab from: http://www.guitartabs.cc/tabs/m/motley_crue/dr_feelgood_btab_ver_3.html ]
0:30 and at 1:05
G|------------------------------------|
D|--------------------------------3-3-| Repeat until
A|--------------3-2-------------------| around 0:47
D|-00-22-33-22-------00-22-33-22------|

Verses 0:47 - Repeat until 0:56       At 0:56
G|-------------------------------|    |----------------------------------|
D|-------------------------------|    |----------------------------------|
A|-------------------------------|    |----------------------------------|
D|-5-3-5---5-3-0---5-3-5---5-3-0-|    |-5-3-5-5-5-5-5-5--5-3-0-0-0-0-0-0-|
Comments