Motley Crue - Dr Feelgood Chords & Tabs

 

Dr Feelgood Chords & Tabs

Motley Crue Chords & Tabs

Version: 2 Type: Bass Tab 0 ratings
1 star 2 stars 3 stars 4 stars 5 stars
comments

Dr Feelgood Bass Tab

			     Motley Cre
                             Dr. Feelgood
Tabbed by: Jorge Maycotte (jmaycotte@hotmail.com)
Check out: http://www.geocities.com/SunsetStrip/Alley/3211/motleycrue.htm
for Cre TAB


F------------------------------------|-----------------------------------|------
C------------------------------------|-----------------------------------|------
G------------------------------------|-----------------------------------|------
D---0-----0--0-----0--0--0--0--0--0--|--0-----0--0-----0--0--0--0--0--0--|------



F------------------------------------|-----------------------------------|------
C------------------------------------|-----------------------------------|------
G------------------------------------|-----------------------------------|------
D---0-----0--0-----0--0--0--0--0--0--|--0-----0--0-----0--0--0--0--0--0--|------



F------------------------------------|-----------------------------------|------
C------------------------------------|-----------------------------------|------
G------------------------------------|-----------------------------------|------
D---0-----0--0-----0--0--0--0--0--0--|--0-----0--0-----0--0--0--0--0--0--|------



F------------------------------------|-----------------------------------|------
C------------------------------------|-----------------------------------|------
G------------------------------------|-----------------------------------|------
D---0-----0--0-----0--0--0--0--0--0--|--0-----0--0-----0--0--0--0--0--0--|------



F------------------------------------|-----------------------------------|------
C------------------------------------|-----------------------------------|------
G------------------------------------|-----------------------------------|------
D---0-----0--0-----0--0--0--0--0--0--|--0-----0--0-----0--0--0--0--0--0--|------



F------------------------------------|-----------------------------------|------
C------------------------------------|-----------------------------------|------
G------------------------------------|-----------------------------------|------
D---0-----0--0-----0--0--0--0--0--0--|--0-----0--0-----0--0--0--0--0--0--|------



F------------------------------------|------------------------------|-----------
C------------------------------------|------------------------------|-----------
G------------------------------------|------------------------------|-----------
D---0-----0--0-----0--0--0--0--0--0--|--0-----0--0-----0---/----/---|-----------



F---------------------------------------|---------------------------------------
C---------------------------------------|---------------------------------------
G---------------------------------5--4--|---------------------------------------
D---0-----0--2--2--3--3--4--5-----------|---------------------------------------



F---------------------------------------|---------------------------------------
C---------------------------------------|---------------------------------------
G---------------------------------7--7--|---------------------------------------
D---0-----0--2--2--3--3--4--5-----0-----|---------------------------------------



F---------------------------------------|---------------------------------------
C---------------------------------------|---------------------------------------
G---------------------------------5--4--|---------------------------------------
D---0-----0--2--2--3--3--4--5-----------|---------------------------------------



F---------------------------------------|---------------------------------------
C---------------------------------------|---------------------------------------
G---------------------------------7--7--|---------------------------------------
D---0-----0--2--2--3--3--4--5-----0-----|---------------------------------------



F---------------------------------------|---------------------------------------
C---------------------------------------|---------------------------------------
G---------------------------------5--4--|---------------------------------------
D---0-----0--2--2--3--3--4--5-----------|---------------------------------------



F---------------------------------------|---------------------------------------
C---------------------------------------|---------------------------------------
G---------------------------------7--7--|---------------------------------------
D---0-----0--2--2--3--3--4--5-----0-----|---------------------------------------



F---------------------------------------|---------------------------------------
C---------------------------------------|---------------------------------------
G---------------------------------5--4--|---------------------------------------
D---0-----0--2--2--3--3--4--5-----------|---------------------------------------



F---------------------------------------|-----------------------|---------------
C---------------------------------------|-----------------------|---------------
G---------------------------------7--7--|-----------------------|---------------
D---0-----0--2--2--3--3--4--5-----0-----|--5-----3--5-----------|---------------



F------------------------|-----------------------|-----------------------|------
C------------------------|-----------------------|-----------------------|------
G------------------------|-----------------------|-----------------------|------
D---5-----3--0-----------|--5-----3--5-----------|--5-----3--0-----------|------



F---------------------------|--------------------------|------------------------
C---------------------------|--------------------------|------------------------
G---------------------------|--------------------------|------------------------
D---5-----3--5-----5--5--5--|--5-----3--0-----0--0--0--|------------------------



F---------------------------|--------------------------|------------------------
C---------------------------|--------------------------|------------------------
G---------------------------|--------------------------|------------------------
D---5-----3--5-----5--5--5--|--5-----3--0-----0--0--0--|------------------------



F---------------------------------------|---------------------------------------
C---------------------------------------|---------------------------------------
G---------------------------------5--4--|---------------------------------------
D---0-----0--2--2--3--3--4--5-----------|---------------------------------------



F---------------------------------------|---------------------------------------
C---------------------------------------|---------------------------------------
G---------------------------------7--7--|---------------------------------------
D---0-----0--2--2--3--3--4--5-----0-----|---------------------------------------



F---------------------------------------|---------------------------------------
C---------------------------------------|---------------------------------------
G---------------------------------5--4--|---------------------------------------
D---0-----0--2--2--3--3--4--5-----------|---------------------------------------



F---------------------------------------|-----------------------|---------------
C---------------------------------------|-----------------------|---------------
G---------------------------------7--7--|-----------------------|---------------
D---0-----0--2--2--3--3--4--5-----0-----|--5-----3--5-----------|---------------



F------------------------|-----------------------|-----------------------|------
C------------------------|-----------------------|-----------------------|------
G------------------------|-----------------------|-----------------------|------
D---5-----3--0-----------|--5-----3--5-----------|--5-----3--0-----------|------



F---------------------------|--------------------------|------------------------
C---------------------------|--------------------------|------------------------
G---------------------------|--------------------------|------------------------
D---5-----3--5-----5--5--5--|--5-----3--0-----0--0--0--|------------------------



F---------------------------|--------------------------|------------------------
C---------------------------|--------------------------|------------------------
G---------------------------|--------------------------|------------------------
D---5-----3--5-----5--5--5--|--5-----3--0-----0--0--0--|------------------------



F---------------------------------------|---------------------------------------
C---------------------------------------|---------------------------------------
G---------------------------------5--4--|---------------------------------------
D---0-----0--2--2--3--3--4--5-----------|---------------------------------------



F---------------------------------------|---------------------------------------
C---------------------------------------|---------------------------------------
G---------------------------------7--7--|---------------------------------------
D---0-----0--2--2--3--3--4--5-----0-----|---------------------------------------



F---------------------------------------|---------------------------------------
C---------------------------------------|---------------------------------------
G---------------------------------5--4--|---------------------------------------
D---0-----0--2--2--3--3--4--5-----------|---------------------------------------



F---------------------------------------|---------------------------------------
C---------------------------------------|---------------------------------------
G---------------------------------7--7--|---------------------------------------
D---0-----0--2--2--3--3--4--5-----0-----|---------------------------------------



F---------------------------------------|---------------------------------------
C---------------------------------------|---------------------------------------
G---------------------------------------|---------------------------------------
D---3-----5-----0--0--0--0--0--0--0--0--|---------------------------------------



F---------------------------------------|---------------------------------------
C---------------------------------------|---------------------------------------
G---------------------------------------|---------------------------------------
D---3-----5-----0--0--0--0--0--0--0--0--|---------------------------------------



F---------------------------------------|---------------------------------------
C---------------------------------------|---------------------------------------
G---------------------------------------|---------------------------------------
D---3-----5-----0--0--0--0--0--0--0--0--|---------------------------------------



F---------------------------------------|---------------------------------------
C---------------------------------------|---------------------------------------
G---------------------------------------|---------------------------------------
D---3-----5-----7-----------------------|---------------------------------------



F---------------------------------------|---------------------------------------
C---------------------------------------|---------------------------------------
G---------------------------------5--4--|---------------------------------------
D---0-----0--2--2--3--3--4--5-----------|---------------------------------------



F---------------------------------------|---------------------------------------
C---------------------------------------|---------------------------------------
G---------------------------------7--7--|---------------------------------------
D---0-----0--2--2--3--3--4--5-----0-----|---------------------------------------


[ Tab from: http://www.guitartabs.cc/tabs/m/motley_crue/dr_feelgood_btab_ver_2.html ]
F---------------------------------------|---------------------------------------
C---------------------------------------|---------------------------------------
G---------------------------------5--4--|---------------------------------------
D---0-----0--2--2--3--3--4--5-----------|---------------------------------------



F---------------------------------------|-----------------------|---------------
C---------------------------------------|-----------------------|---------------
G---------------------------------7--7--|-----------------------|---------------
D---0-----0--2--2--3--3--4--5-----0-----|--5-----3--5-----------|---------------



F------------------------|-----------------------|-----------------------|------
C------------------------|-----------------------|-----------------------|------
G------------------------|-----------------------|-----------------------|------
D---5-----3--0-----------|--5-----3--5-----------|--5-----3--0-----------|------



F---------------------------|--------------------------|------------------------
C---------------------------|--------------------------|------------------------
G---------------------------|--------------------------|------------------------
D---5-----3--5-----5--5--5--|--5-----3--0-----0--0--0--|------------------------



F---------------------------|--------------------------|------------------------
C---------------------------|--------------------------|------------------------
G---------------------------|--------------------------|------------------------
D---5-----3--5-----5--5--5--|--5-----3--0-----0--0--0--|------------------------



F---------------------------------------|---------------------------------------
C---------------------------------------|---------------------------------------
G---------------------------------5--4--|---------------------------------------
D---0-----0--2--2--3--3--4--5-----------|---------------------------------------



F---------------------------------------|---------------------------------------
C---------------------------------------|---------------------------------------
G---------------------------------7--7--|---------------------------------------
D---0-----0--2--2--3--3--4--5-----0-----|---------------------------------------



F---------------------------------------|---------------------------------------
C---------------------------------------|---------------------------------------
G---------------------------------------|---------------------------------------
D---0--0-----0--0-----0--0--0--0--0--0--|---------------------------------------



F---------------------------------------|---------------------------------------
C---------------------------------------|---------------------------------------
G---------------------------------5--4--|---------------------------------------
D---------0--2--2--3--3--4--5-----------|---------------------------------------



F---------------------------------------|---------------------------------------
C---------------------------------------|---------------------------------------
G---------------------------------7--7--|---------------------------------------
D---0-----0--2--2--3--3--4--5-----0-----|---------------------------------------



F---------------------------------------|---------------------------------------
C---------------------------------------|---------------------------------------
G---------------------------------------|---------------------------------------
D---3-----5-----0--0--0--0--0--0--0--0--|---------------------------------------



F---------------------------------------|---------------------------------------
C---------------------------------------|---------------------------------------
G---------------------------------------|---------------------------------------
D---3-----5-----0--0--0--0--0--0--0--0--|---------------------------------------



F---------------------------------------|---------------------------------------
C---------------------------------------|---------------------------------------
G---------------------------------------|---------------------------------------
D---3-----5-----0--0--0--0--0--0--0--0--|---------------------------------------



F---------------------------------------|---------------------------------------
C---------------------------------------|---------------------------------------
G---------------------------------------|---------------------------------------
D---3-----5-----7-----------------------|---------------------------------------



F------------------------------------|-----------------------------------|------
C------------------------------------|-----------------------------------|------
G------------------------------------|-----------------------------------|------
D---0-----0--0-----0--0--0--0--0--0--|--0-----0--0-----0--0--0--0--0--0--|------



F------------------------------------|------------------------------------------
C------------------------------------|------------------------------------------
G------------------------------------|------------------------------------------
D---0-----0--0-----0--0--0--0--0--0--|------------------------------------------



F---------------------------------------|---------------------------------------
C---------------------------------------|---------------------------------------
G---------------------------------------|---------------------------------------
D------0-----0--0-----0--0--0--0--0--0--|---------------------------------------



F---------------------------------------|---------------------------------------
C---------------------------------------|---------------------------------------
G---------------------------------------|---------------------------------------
D------0-----0--0-----0--0--0--0--0--0--|---------------------------------------



F------------------------------------|------------------------------------------
C------------------------------------|------------------------------------------
G------------------------------------|------------------------------------------
D---0-----0--0-----0--0--0--0--0--0--|------------------------------------------



F---------------------------------------------|---------------------------------
C---------------------------------------------|---------------------------------
G---------------------------------------------|---------------------------------
D------------0-----0--0-----0-----------------|---------------------------------



F---------------------------------------------|---------------------------------
C---------------------------------------------|---------------------------------
G---------------------------------------------|---------------------------------
D---------3-----5-----0--0--0--0--0--0--0--0--|---------------------------------



F---------------------------------------|---------------------------------------
C---------------------------------------|---------------------------------------
G---------------------------------------|---------------------------------------
D---3-----5-----0--0--0--0--0--0--0--0--|---------------------------------------



F---------------------------------------|---------------------------------------
C---------------------------------------|---------------------------------------
G---------------------------------------|---------------------------------------
D---3-----5-----0--0--0--0--0--0--0--0--|---------------------------------------


                                           bass tacet
F---------------------------------------|--------------|-----------------|------
C---------------------------------------|--------------|-----------------|------
G---------------------------------------|--------------|---/14-----14\---|------
D---3-----5-----7-----------------------|--------------|-----------------|------



F---------------------------------------|---------------------------------------
C---------------------------------------|---------------------------------------
G------------------------------5--4-----|---------------------------------------
D------3-----5-----0--0--0--0-----------|---------------------------------------



F---------------------------------------|---------------------------------------
C---------------------------------------|---------------------------------------
G------------------------------5--4-----|---------------------------------------
D------3-----5-----0--0--0--0-----------|---------------------------------------



F---------------------------------------|---------------------------------------
C---------------------------------------|---------------------------------------
G------------------------------5--4-----|---------------------------------------
D------3-----5-----0--0--0--0-----------|---------------------------------------



F---------------------------------------|---------------------------------------
C---------------------------------------|---------------------------------------
G---------------------------------------|---------------------------------------
D---3-----5-----7-----------------------|---------------------------------------


    repeat until fade out
F---------------------------------------|---------------------------------------
C---------------------------------------|---------------------------------------
G---------------------------------5--4--|---------------------------------------
D---0-----0--2--2--3--3--4--5-----------|---------------------------------------



F---------------------------------------|---------------------------------------
C---------------------------------------|---------------------------------------
G---------------------------------7--7--|---------------------------------------
D---0-----0--2--2--3--3--4--5-----0-----|---------------------------------------




================================================================================
==                           TABLATURE EXPLANATION                           
  ==
================================================================================

----------                ----------                ----t---
----5h8--- Hammeron       ----(8)--- Ghost          ----6--- Tap
----------                ---------- Note           --------
----5p8--- Pulloff        ----------                --------

----------                ----------                -----p--
----5/8--- Slide Up       -----x---- Dead           -----7-- Pop
----------                ---------- Note           --s-----
----5\8--- Slide Down     ----------                --5----- Slap

----------                ||------|| Repeat         --------
----5~~~-- Vibrato        ||*----*||                ---5^--- Bend
----------                ||*----*||                --------
----------                ||------||                --------

----------                ----------                --------
-4:------- Time           ----------                --------
-4:------- Signature      ----------                --------
----------                ----------                --------

Rhythm:
  w = whole note            W = dotted whole
  h = half note             H = dotted half
  q = quarter note          Q = dotted quarter
  e = eighth note           E = dotted eighth
  s = sixteenth note        S = dotted sixteenth
  t = 32nd note             T = dotted 32nd
  x = 64th note             X = dotted 64th
  ^ = triplet

================================================================================
==                Created with a demo version of BUCKET O' TAB               
  ==
==                  tablature creation software for Windows                  
  ==
==                      For more info email gse@his.com                      
  ==
================================================================================


Comments