Motley Crue - Bitter Pill Chords & Tabs

 

Bitter Pill Chords & Tabs

Motley Crue Chords & Tabs

Version: 1 Type: Bass Tab 0 ratings
1 star 2 stars 3 stars 4 stars 5 stars
comments

Bitter Pill Bass Tab

   
Band- Motley Crue
Song- Bitter Pill

Tuning: Standard (E A D G)

very cool song 

verse 

G|------------------------------------------------||
D|------------------------------------------------||
A|------------------------------------------------||
E|-6---5---2--0-0-0-0-0-0-0-0-5-0-5-0-5-6-7-0-5-6-7|



pre- chorus
G|------------------------------------------------||
D|------------------------------------------------||
A|-------------4-4-4-4-4-----------------4-4-4-4--||
E|-5-5-5-5-5-5----------2-2-2-2---5-5-5-5-------2-||


chorus
[ Tab from: http://www.guitartabs.cc/tabs/m/motley_crue/bitter_pill_btab.html ]
G|------------------------------------------------||
D|------------------------------------------------||
A|------------------4-4-4-4-4-4-4-4---------------||
E|-5-5-5-5-5-5-5-5-5---------------2-2-2-2-2-2-2-2||


G|------------------------------------------------||
D|------------------------------------------------||
A|-5-5-5-5-5-5-5-5---------------4-4-4-4-4-4-4-4--||
E|----------------5-5-5-5-5-5-5-5-----------------||



G|--------------------------------||
D|--------------------------------||
A|----------------5-5-5-5-5-5-5-5-||
E|-2-2-2-2-2-2-2-2----------------||


verse
G|------------------------------------------------||
D|------------------------------------------------||
A|------------------------------------------------||
E|-0-0--0-0-0-0--0-0-3-3--3-3-3-3--3-9-8-7-9-8-7--||
Comments