Motley Crue - Beauty Chords & Tabs

 

Beauty Chords & Tabs

Motley Crue Chords & Tabs

Version: 1 Type: Tab 0 ratings
1 star 2 stars 3 stars 4 stars 5 stars
comments

Beauty Tab

   
Band- Motley Crue
Song- Beauty

Tuning: Drop D (D A D G B E)

E|------------------------------------------------||
B|------------------------------------------------||
G|------------------------------------------------||
D|--5-5-x-3-----5-5-x-3-----5-5-x-3-----5-5-4-3---||
A|--5-5-x-3-----5-5-x-3-----5-5-x-3-----5-5-4-3---||
D|--5-5-x-3-----5-5-x-3-----5-5-x-3---------------||

E|--------------------------||
B|--------------------------||
G|--------------------------||
D|--9--10-------------------||
A|--9--10--9/12-12--12-12---||
D|--9--10--9/12-12--12-12---||

E|-----------------------------------------||
B|-----------------------------------------||
G|-----------------------------------------||
D|-----------------------------------------||
A|----------3-----3-----3-------3----------||
D|--5-3-5------3-----2------1-------1--1---||
[ Tab from: http://www.guitartabs.cc/tabs/m/motley_crue/beauty_tab.html ]
E|------------------------------------------------||
B|------------------------------------------------||
G|------------------------------------------------||
D|--5-5-x-3-----5-5-x-3-----5-5-x-3-----5-5-4-3---||
A|--5-5-x-3-----5-5-x-3-----5-5-x-3-----5-5-4-3---||
D|--5-5-x-3-----5-5-x-3-----5-5-x-3---------------||

E|--------------------------||
B|--------------------------||
G|--------------------------||
D|--9--10-------------------||
A|--9--10--9/12-12--12-12---||
D|--9--10--9/12-12--12-12---||

E|-----------------------------------------||
B|-----------------------------------------||
G|-----------------------------------------||
D|-----------------------------------------||
A|----------3-----3-----3-------3----------||
D|--5-3-5------3-----2------1-------1--1---||

E|--------------------------------------------------------||
B|--------------------------------------------------------||
G|--------------------------------------------------------||
D|--------------------------------------------------------||
A|--9-9-9-9-9-9-10-10-10-10-10-5-5-5-5-5-5-0-0-0-0-0-0-0--||
D|--9-9-9-9-9-9-10-10-10-10-10-5-5-5-5-5-5-0-0-0-0-0-0-0--||

E|-----------------------------------------||
B|-----------------------------------------||
G|-----------------------------------------||
D|-----------------------------------------||
A|----------3-----3-----3-------3----------||
D|--5-3-5------3-----2------1-------1--1---||
Comments