Motley Crue - Beauty Chords & Tabs

 

Beauty Chords & Tabs

Motley Crue Chords & Tabs

Version: 1 Type: Bass Tab 0 ratings
1 star 2 stars 3 stars 4 stars 5 stars
comments

Beauty Bass Tab

   
*Drop D*

this is a great Crue song off generation swine

------------------------------------------|
----------5----------5-4-3----------------|
-------3/5----------------5-3-5-3-1-------|
-5-5-3------------------------------------|
decked out like an hourglass
ammonia and razorblade
things where just ok till she
fell in love with cocaine
[ Tab from: http://www.guitartabs.cc/tabs/m/motley_crue/beauty_btab.html ]
----------------------------------------|
----------------------------------------|
-2-2-222--5-5-555-----------------------|
----------------------------------------|
i will always love her
yes i will
i will always love her

----------------------------------------|
----------------------------------------|
----------------------------------------|
-5-5-5-5-3-3-3-3-2-2-2-1-1-1-1----------|
shes my beauty....


thats it!
Comments