Motley Crue - All In The Name Of Chords & Tabs

 

All In The Name Of Chords & Tabs

Motley Crue Chords & Tabs

Version: 1 Type: Bass Tab 0 ratings
1 star 2 stars 3 stars 4 stars 5 stars
comments

All In The Name Of Bass Tab

Band- Motley Crue
Song- All In The Name Of

Drums          Guitar
F---------------|--------------|--------------------------|---------------------|
C---------------|--------------|--------------------------|---------------------|
G---------------|--------------|--0--0--0--0--0--0--0--0--|---------------------|
D---------------|--------------|--------------------------|---------------------|

F---------------------------|--------------------------|------------------------|
C---------------------------|--------------------------|------------------------|
G---0--0--0--0--0--0--0--0--|--0--0--0--0--0--0--0--0--|------------------------|
D---------------------------|--------------------------|------------------------|

F---------------------------|--------------------------|------------------------|
C---------------------------|--------------------------|------------------------|
G---0--0--0--0--0--0--0--0--|--5--5--5--5--5--5--5--5--|------------------------|
D---------------------------|--------------------------|------------------------|

F---------------------------|--------------------------|------------------------|
C---------------------------|--------------------------|------------------------|
G---5--5--5--5--5--5--5--5--|--5--5--5--5--5--5--5--5--|------------------------|
D---------------------------|--------------------------|------------------------|

F---------------------|--------------------------|------------------------------|
C---------------------|--------------------------|------------------------------|
G---5-----3-----2-----|--0--0--0--0--0--0--0--0--|------------------------------|
D---------------------|--------------------------|------------------------------|

F---------------------------|--------------------------|------------------------|
C---------------------------|--------------------------|------------------------|
G---0--0--0--0--0--0--0--0--|--0--0--0--0--0--0--0--0--|------------------------|
D---------------------------|--------------------------|------------------------|

F---------------------------|--------------------------|------------------------|
C---------------------------|--------------------------|------------------------|
G---0--0--0--0--0--0--0--0--|--5--5--5--5--5--5--5--5--|------------------------|
D---------------------------|--------------------------|------------------------|

F---------------------------|--------------------------|-----------------|------|
C---------------------------|--------------------------|-----------------|------|
G---5--5--5--5--5--5--5--5--|--5--5--5--5--5--5--5--5--|--5-----3-----2--|------|
D---------------------------|--------------------------|-----------------|------|

F------------------------------|-----------------------------|------------------|
C------------------------------|-----------------------------|------------------|
G------0--0--0--0--0--0--0--0--|-----0--0--0--0--0--0--0--0--|------------------|
D------------------------------|-----------------------------|------------------|

F------------------------------|-----------------------------|------------------|
C------------------------------|-----------------------------|------------------|
G------0--0--0--0--0--0--0--0--|-----0--0--0--0--0--0--0--0--|------------------|
D------------------------------|-----------------------------|------------------|

F-----------------------------------------------|-------------------------------|
C---------7--7--9--9--10--10--9--9--7--7--------|-------------------------------|
G---7--9----------------------------------9--5--|-------------------------------|
D-----------------------------------------------|-------------------------------|

F---------------------------------------|--------------------------|------------|
C------------------5--4-----5-----4-----|--------------------------|------------|
G------------------------5--------------|--0--0--0--0--0--0--0--0--|------------|
D---------------------------------------|--------------------------|------------|

F------------------------------|--------------------------|---------------------|
C---------5--4-----5-----4-----|--------------------------|---------------------|
G---0--0--------5--------------|--0--0--0--0--0--0--0--0--|---------------------|
D------------------------------|--------------------------|---------------------|

F------------------------------|--------------------------|---------------------|
C---------5--4-----5-----4-----|--0--0--0--0--0--0--0--0--|---------------------|
G---0--0--------5--------------|--------------------------|---------------------|
D------------------------------|--------------------------|---------------------|

F---------------------------|--------------------------|------------------------|
C---0--0--5--4-----5-----4--|--------------------------|------------------------|
G---------------5-----------|--0--0--0--0--0--0--0--0--|------------------------|
D---------------------------|--------------------------|------------------------|

F---------------------------|---------------------------------------------------|
C---------5--4-----5-----4--|---------------------------------------------------|
G---0--0--------5-----------|---------------------------------------------------|
D---------------------------|---------------------------------------------------|

F--------------------------------------------------------|--------------|-------|
C------------------7--7--9--9--10--10--9--9--7--7--------|--------------|-------|
G---7--7--9--9-------------------------------------9--5--|--------------|-------|
D--------------------------------------------------------|--------------|-------|

F------------------------|--------------------------|---------------------------|
C---5--4-----5-----4-----|--------------------------|---------------------------|
G---------5--------------|--0--0--0--0--0--0--0--0--|---------------------------|
D------------------------|--------------------------|---------------------------|

F---------------------------|--------------------------|------------------------|
C---------------------------|--------------------------|------------------------|
G---0--0--0--0--0--0--0--0--|--0--0--0--0--0--0--0--0--|------------------------|
D---------------------------|--------------------------|------------------------|

F---------------------------|--------------------------|------------------------|
C---------------------------|--------------------------|------------------------|
G---0--0--0--0--0--0--0--0--|--5--5--5--5--5--5--5--5--|------------------------|
D---------------------------|--------------------------|------------------------|

F---------------------------|--------------------------|------------------------|
C---------------------------|--------------------------|------------------------|
G---5--5--5--5--5--5--5--5--|--5--5--5--5--5--5--5--5--|------------------------|
D---------------------------|--------------------------|------------------------|

F---------------------|--------------------------|------------------------------|
C---------------------|--------------------------|------------------------------|
G---5-----3-----2-----|--0--0--0--0--0--0--0--0--|------------------------------|
D---------------------|--------------------------|------------------------------|

F---------------------------|--------------------------|------------------------|
C---------------------------|--------------------------|------------------------|
G---0--0--0--0--0--0--0--0--|--0--0--0--0--0--0--0--0--|------------------------|
D---------------------------|--------------------------|------------------------|

F---------------------------|--------------------------|------------------------|
C---------------------------|--------------------------|------------------------|
G---0--0--0--0--0--0--0--0--|--5--5--5--5--5--5--5--5--|------------------------|
D---------------------------|--------------------------|------------------------|

F---------------------------|--------------------------|-----------------|------|
C---------------------------|--------------------------|-----------------|------|
G---5--5--5--5--5--5--5--5--|--5--5--5--5--5--5--5--5--|--5-----3-----2--|------|
D---------------------------|--------------------------|-----------------|------|
[ Tab from: http://www.guitartabs.cc/tabs/m/motley_crue/all_in_the_name_of_btab.html ]
F------------------------------|-----------------------------|------------------|
C------------------------------|-----------------------------|------------------|
G------0--0--0--0--0--0--0--0--|-----0--0--0--0--0--0--0--0--|------------------|
D------------------------------|-----------------------------|------------------|

F------------------------------|-----------------------------|------------------|
C------------------------------|-----------------------------|------------------|
G------0--0--0--0--0--0--0--0--|-----0--0--0--0--0--0--0--0--|------------------|
D------------------------------|-----------------------------|------------------|

F-----------------------------------------------|-------------------------------|
C---------7--7--9--9--10--10--9--9--7--7--------|-------------------------------|
G---7--9----------------------------------9--5--|-------------------------------|
D-----------------------------------------------|-------------------------------|

F---------------------------------------|--------------------------|------------|
C------------------5--4-----5-----4-----|--------------------------|------------|
G------------------------5--------------|--0--0--0--0--0--0--0--0--|------------|
D---------------------------------------|--------------------------|------------|

F------------------------------|--------------------------|---------------------|
C---------5--4-----5-----4-----|--------------------------|---------------------|
G---0--0--------5--------------|--0--0--0--0--0--0--0--0--|---------------------|
D------------------------------|--------------------------|---------------------|

F------------------------------|--------------------------|---------------------|
C---------5--4-----5-----4-----|--0--0--0--0--0--0--0--0--|---------------------|
G---0--0--------5--------------|--------------------------|---------------------|
D------------------------------|--------------------------|---------------------|

F---------------------------|--------------------------|------------------------|
C---0--0--5--4-----5-----4--|--------------------------|------------------------|
G---------------5-----------|--0--0--0--0--0--0--0--0--|------------------------|
D---------------------------|--------------------------|------------------------|

F---------------------------|---------------------------------------------------|
C---------5--4-----5-----4--|---------------------------------------------------|
G---0--0--------5-----------|---------------------------------------------------|
D---------------------------|---------------------------------------------------|

F--------------------------------------------------------|--------------|-------|
C------------------7--7--9--9--10--10--9--9--7--7--------|--------------|-------|
G---7--7--9--9-------------------------------------9--5--|--------------|-------|
D--------------------------------------------------------|--------------|-------|

F------------------------|-----------------|-----------------------|------------|
C---5--4-----5-----4-----|-----------------|--5--4-----5-----4-----|------------|
G---------5--------------|--0--------------|--------5--------------|------------|
D------------------------|-----------------|-----------------------|------------|

F------------------|-----------------------|--------------------------|---------|
C------------------|--5--4-----5-----4-----|--------------------------|---------|
G---0--------------|--------5--------------|--0--0--0--0--0--0--0-----|---------|
D------------------|-----------------------|--------------------------|---------|

F------------------------------|--------------------------|---------------------|
C---------5--4-----5-----4-----|--------------------------|---------------------|
G---0--0--------5--------------|--0--0--0--0--0--0--0-----|---------------------|
D------------------------------|--------------------------|---------------------|

F------------------------------|--------------------------|---------------------|
C---------5--4-----5-----4-----|--------------------------|---------------------|
G---0--0--------5--------------|--0--0--0--0--0--0--0-----|---------------------|
D------------------------------|--------------------------|---------------------|

F------------------------------|-----------------|------------------------------|
C---------5--4-----5-----4-----|-----------------|------------------------------|
G---0--0--------5--------------|--0--------------|------------------------------|
D------------------------------|-----------------|------------------------------|


    Solo
F---------------------------|--------------------------|------------------------|
C---0--0--0--0--0--0--0--0--|--0--0--0--0--0--0--0--0--|------------------------|
G---------------------------|--------------------------|------------------------|
D---------------------------|--------------------------|------------------------|

F---------------------------|-----------------|--------------------------|------|
C---0--0--0--0--0--0--0--0--|-----------------|--0--0--0--0--0--0--0--0--|------|
G---------------------------|--5-----3-----2--|--------------------------|------|
D---------------------------|-----------------|--------------------------|------|

F---------------------------|--------------------------|------------------------|
C---0--0--0--0--0--0--0--0--|--0--0--0--0--0--0--0--0--|------------------------|
G---------------------------|--------------------------|------------------------|
D---------------------------|--------------------------|------------------------|

F---------------------|--------------------------|------------------------------|
C---------------------|--------------------------|------------------------------|
G---5-----3-----2-----|--0--0--0--0--0--0--0--0--|------------------------------|
D---------------------|--------------------------|------------------------------|

F---------------------------|--------------------------|------------------------|
C---------------------------|--------------------------|------------------------|
G---0--0--0--0--0--0--0--0--|--0--0--0--0--0--0--0--0--|------------------------|
D---------------------------|--------------------------|------------------------|

F---------------------------|--------------------------|------------------------|
C---------------------------|--0--0--0--0--0--0--0--0--|------------------------|
G---0--0--0--0--0--0--0--0--|--------------------------|------------------------|
D---------------------------|--------------------------|------------------------|

F---------------------------|--------------------------|------------------------|
C---0--0--0--0--0--0--0--0--|--0--0--0--0--0--0--0--0--|------------------------|
G---------------------------|--------------------------|------------------------|
D---------------------------|--------------------------|------------------------|

F---------------------|--------------------------|------------------------------|
C---------------------|--------------------------|------------------------------|
G---5-----3-----2-----|--0--0--0--0--0--0--0--0--|------------------------------|
D---------------------|--------------------------|------------------------------|

F---------------------------|--------------------------|------------------------|
C---------------------------|--------------------------|------------------------|
G---0--0--0--0--0--0--0--0--|--0--0--0--0--0--0--0--0--|------------------------|
D---------------------------|--------------------------|------------------------|


                                                          Chorus
F---------------------------|--------------------------|--------------|---------|
C---------------------------|--------------------------|--------------|---------|
G---0--0--0--0--0--0--0--0--|--------------------------|--------------|---------|
D---------------------------|--------------------------|--------------|---------|

F---------------|-----------------------------|---------------------------------|
C---------------|-----------------------------|---------------------------------|
G---0-----------|--0-----0-----0--------------|---------------------------------|
D---------------|-----------------------------|---------------------------------|

F-------------------------------------------------------------------------------|
C-------------------------------------------------------------------------------|
G---------------7--0--7--9--10--10--9--7--9--7----------------------------------|
D---5-----5--9----------------------------------7--9--5-----5-------------------|
Comments