Motionless In White - Devils Night Chords & Tabs

 

Devils Night Chords & Tabs

Motionless In White Chords & Tabs

Version: 1 Type: Tab 0 ratings
1 star 2 stars 3 stars 4 stars 5 stars
comments

Devils Night Tab

   
Song: Devils Night
Band: Motionless in White
Album: Infamous (2012)
Tuning: Drop A (A,E,A,D,G,b)

This is mostly just the rhythm guitar.

Intro 1: (0:00)
e --------------------------------------------------------------------------|
B---------------------------------------------------------------------------|
G---------------------------------------------------------------------------|    (x4)
D---------------------------------------------------------------------------|
A---------------------------------------------------------------------------|
E --0-0-0-0-0-0--------0----0----0-----0---0-0----0---0-0-------------------|

intro 2:

e----------------------------------------------------------------------------|
B----------------------------------------------------------------------------|
G----------------------------------------------------------------------------|
D----------------------------------------------------------------------------|
A-0-0-0---0-0-0----0-0-0---0-0-0----0-0--0----0--0-0--0--0-0-----------------|
E-0-0-0---0-0-0----0-0-0---0-0-0----0--0--0---0--0-0--0--0-0-----------------|

[ Tab from: http://www.guitartabs.cc/tabs/m/motionless_in_white/devils_night_tab.html ]
Verse:
e--------------------------------------------|
B--------------------------------------------|
G--------------------------------------------|
D--------------------------------------------|
A-------0------7-------0---1-----------------|
E-0-0-0-0-0-7-0-0-0-0-1---4-5-4-6------------|

Then:
e------------------------------------------|
B------------------------------------------|
G------------------------------------------|
D------------------------------------------|
A------0----------0---------0----------0---|
E-0-0-0-0-0-0-0-0-0-0-0-0-0-0-0------------|


Chorus:
E----------------------------|
B----------------------------|
G--7----5----3---------------|
D--7----5----3--5--7---------|
A--5----3----1--5--7---------|
E -0-------------5--7--------|

Breakdown: (after 2nd Chorus):
e-----------------------|
B-----------------------|
G-----------------------|
D-----------------------|
A-----------------------|
E-1p0--0-0---0-0-0-0----|

Breakdown 2:
e-------------|
B-------------|
G-------------|
D-------------|
A-1-0----0--0-|
E-1-0----0--0-|

Order of Song:
Intro
Intro2
Verse
chorus
Intro2
Verse
Chorus
Breakdown
Breakdown 2
Chorus

That's all. Comment on it if something is wrong cause it probably is.
Comments