Motion City Soundtrack - When Youre Around Chords & Tabs

 

When Youre Around Chords & Tabs

Motion City Soundtrack Chords & Tabs

Version: 2 Type: Tab 0 ratings
1 star 2 stars 3 stars 4 stars 5 stars
comments

When Youre Around Tab

Hey this is a cool song and this sounds pretty accurate
the other tab for this wrong but it was still okay
I'm pretty sure this is completely right

Guitar 1- intro 
E|------------------------------------------------------|
b|------------------------------------------------------|
g|-------------9-9-9-11-11-------------9-9-9-11-11-11-11|[3x]
d|--6-6-6-7-7--9-9-9-11-11--6-6-6-7-7--9-9-9-11-11-11-11|
a|--6-6-6-7-7--7-7-7--9--9--6-6-6-7-7--7-7-7--9--9--9--9|
e|--4-4-4-5-5---------------4-4-4-5-5-------------------|

Guitar 2- into
E|---------------------------------|
b|---------9---9-9-7-----9---7-9-7-|
g|-----9-9---9-------9-9---9-------|[2x]
d|---------------------------------|
a|---------------------------------|
e|---------------------------------|

Guitar 1- Verse
E|------------------------------------------------------|    
b|------------------------------------------------------|    
g|-------------9-9-9-11-11-------------9-9-9-11-11-11-11|(3x) 
d|--6-6-6-7-7--9-9-9-11-11--6-6-6-7-7--9-9-9-11-11-11-11|    
a|--6-6-6-7-7--7-7-7--9--9--6-6-6-7-7--7-7-7--9--9--9--9|    
e|--4-4-4-5-5---------------4-4-4-5-5-------------------|    

E|---------------------------------------------------|
B|---------------------------------------------------|
G|-------------9-9-9-11-11-------------9-9-9-11-11-11| 
D|--6-6-6-7-7--9-9-9-11-11--6-6-6-7-7--9-9-9-11-11-11|
A|--6-6-6-7-7--7-7-7--9--9--6-6-6-7-7--7-7-7--9--9--9|
e|--4-4-4-5-5---------------4-4-4-5-5----------------|

Guitar 1 Chorus
E|---------------------------------------------------------------------------------------------------------|
b|---------------------------------------------------------------------------------------------------------|
g|--6--6-6--6-6--------------9--9-9--9-9--9--9-9--9-9--6--6-6--6-6--------------9--9-9--9-9----------------|(2x)
d|--6--6-6--6-6-7--7-7--7-7--9--9-9--9-9--9--9-9--9-9--6--6-6--6-6-7--7-7--7-7--9--9-9--9-9-9-9-9-9-9-9-9-9|
a|--4--4-4--4-4-7--7-7--7-7--7--7-7--7-7--7--7-7--7-7--4--4-4--4-4-7--7-7--7-7--7--7-7--7-7-9-9-9-9-9-9-9-9|
e|--------------5--5-5--5-5----------------------------------------5--5-5--5-5--------------7-7-7-7-7-7-7-7|

Guitar 1 and 2- Intro [x2]
Guitar 1- Verse
Guitar 1- Chorus

Guitar 2- 
E|-------------------|
b|----9---9----------|
g|--9---9---9--------|
d|-------------------|
a|-------------------|
e|-------------------|

Guitar 1 and 2- Intro [x2]
Guitar 1- Chorus
[ Tab from: http://www.guitartabs.cc/tabs/m/motion_city_soundtrack/when_youre_around_tab_ver_2.html ]
E|-------------------------------------------------------------------------------------------------------------|
b|-------------------------------------------------------------------------------------------------------------|
g|--6--6-6--6-6--------------9--9-9--9-9--9--9-9--9-9--6--6-6--6-6--------------7-7-7-7-7-7-7-7-9-9-9-9-9-9-9-9|
d|--6--6-6--6-6-7--7-7--7-7--9--9-9--9-9--9--9-9--9-9--6--6-6--6-6-7--7-7--7-7--7-7-7-7-7-7-7-7-9-9-9-9-9-9-9-9|
a|--4--4-4--4-4-7--7-7--7-7--7--7-7--7-7--7--7-7--7-7--4--4-4--4-4-7--7-7--7-7--5-5-5-5-5-5-5-5-7-7-7-7-7-7-7-7|
e|--------------5--5-5--5-5----------------------------------------5--5-5--5-5---------------------------------|

Guitar 1- bridge
E|---------------------------------------------------------------------------------------------------------------|
b|---------------------------------------------------------------------------------------------------------------|
g|---------------------------9--9-9--9-9--11--11-11-11-11-11-11-6--6-6--6-6--------------9--9-9--9-9-------------|
d|--6--6-6--6-6-7--7-7--7-7--9--9-9--9-9--11--11-11-11-11-11-11-6--6-6--6-6-7--7-7--7-7--9--9-9--9-9--9-9-9-9-9-9|
a|--6--6-6--6-6-7--7-7--7-7--7--7-7--7-7---9---9--9--9--9--9--9-4--4-4--4-4-7--7-7--7-7--7--7-7--7-7--9-9-9-9-9-9|
e|--4--4-4--4-4-5--5-5--5-5-------------------------------------------------5--5-5--5-5---------------7-7-7-7-7-7|

Guitar 1- Outro 
E|-------------------------------------------------------------------------------------------------------------|
b|-------------------------------------------------------------------------------------------------------------|
g|-------------9-9-9-11-11-------------9-9-9-11-11-11-11-------------9-9-9-11-11-------------9-9-9-------------|
d|--6-6-6-7-7--9-9-9-11-11--6-6-6-7-7--9-9-9-11-11-11-11--6-6-6-7-7--9-9-9-11-11--6-6-6-7-7--9-9-9--9-9-9------|
a|--6-6-6-7-7--7-7-7--9--9--6-6-6-7-7--7-7-7--9--9--9--9--6-6-6-7-7--7-7-7--9--9--6-6-6-7-7--7-7-7--9-9-9------|
e|--4-4-4-5-5---------------4-4-4-5-5---------------------4-4-4-5-5---------------4-4-4-5-5---------7-7-7------|

Guitar 2- Outro
E|-------------------------------------------------------------|
b|---------9---9-9-7-----9---7-9-7------9---9-9-7-----9---7-9-7|
g|-----9-9---9-------9-9---9--------9-9---9-------9-9---9------|
d|-------------------------------------------------------------|
a|-------------------------------------------------------------|
e|-------------------------------------------------------------|

if there are problems with it or something then email me: bluedragoneyes13@yahoo.com
Comments