Motion City Soundtrack - When Youre Around Chords & Tabs

 

When Youre Around Chords & Tabs

Motion City Soundtrack Chords & Tabs

Version: 1 Type: Tab 0 ratings
1 star 2 stars 3 stars 4 stars 5 stars
comments

When Youre Around Tab

   
Motion City Soundtrack - When "You're" Around
tabbed by: GuitarChick102
email: wada0402@stcloudstate.com 

This song is on the split acoustic ep with Matchbook Romance. It's a great song and
everything on here is near perfect . . . I'm sure.

tuning: standard (EADGBe)

Guitar 1 (Rhythm)
into/verses: G#   A    D    B   strum intro 6 times then palm mute
e|------------------------------------|
B|------------------------------------|
G|---------------------9--------------|
D|-----------6----7----9----9---------|
A|-----------6----7----7----9---------|
E|-----------4----5---------7---------|

Guitar 2 (Picking guitar)
intro: wait first 2 measures to come in & repeat twice
e|--------------------------------------------|
B|----9---9---9--9--7-----9---9---9--7--9--7--|
G|--9---9---9-----------9---9---9-------------|
D|--------------------------------------------|
A|--------------------------------------------|
E|--------------------------------------------|
[ Tab from: http://www.guitartabs.cc/tabs/m/motion_city_soundtrack/when_youre_around_tab.html ]
Guitar 1  (Repeat 4 times)
Chorus: C#   A    E    B
e|---------------------------|
B|---------------------------|
G|------6---------9----------|
D|------6----7----9----9-----|
A|------4----7----7----9-----|
E|-----------5---------7-----|

(Last chorus is played several times)

C#                    A                 E                         B
But all I could was close my eyes and cross my heart and hope to die
             C#                A              E    B
Cause "you" don't fucking listen when I'm around
     C#                       A      
The least "you" could do was take it back 
       E                  B
the vicious remarks and verbal attacks
         C#                  A                   E    B
Cause I can't fucking stand it when "you're" around

The whole song is really easy to figure out . . . there's basically only the 2nd
guitar picking part in between the verses and choruses so it's really easy to figure
out! Enjoy!
Danielle
Comments