Motion City Soundtrack - When Youre Around Chords & Tabs

 

When Youre Around Chords & Tabs

Motion City Soundtrack Chords & Tabs

Version: 1 Type: Bass Tab 0 ratings
1 star 2 stars 3 stars 4 stars 5 stars
comments

When Youre Around Bass Tab

I am 100% sure this is right, however if you feel it's not then by all means change it.

Verse One:  (come in w/ drums)
G:---------------------------------------------|
D:---------------------------------------------|
A:-----------2-2-2-4-4-----------2-2-2---------|  x6
E:-4-4-4-5-5-----------4-4-4-5-5-------0-------|

Chorus:
G:-----------------------------------l-------|
D:-----------------------------------l-------|
A:-4-4-4-4---------------------------l--2----|  x4
E:---------5-5-5-5-0-0-0-0-0-0-0-0---l-------|

Verse Two:
G:---------------------------------------------|
D:---------------------------------------------|
A:-----------2-2-2-4-4-----------2-2-2---------|  x6
E:-4-4-4-5-5-----------4-4-4-5-5-------0-------|

Chorus:
G:-----------------------------------l-------|
D:-----------------------------------l-------|
A:-4-4-4-4---------------------------l--2----|  x4
E:---------5-5-5-5-0-0-0-0-0-0-0-0---l-------|
[ Tab from: http://www.guitartabs.cc/tabs/m/motion_city_soundtrack/when_youre_around_btab.html ]
Bridge: (no words)
G:---------------------------------------------|
D:---------------------------------------------|
A:-----------2-2-2-4-4-----------2-2-2---------|  x2
E:-4-4-4-5-5-----------4-4-4-5-5-------0-------|

Chorus:
G:-----------------------------------l-------|
D:-----------------------------------l-------|
A:-4-4-4-4---------------------------l--2----|  x4
E:---------5-5-5-5-0-0-0-0-0-0-0-0---l-------|

Bridge 2:  (no i can't fucking stand it)
G:-----------------------------------------------------------------|
D:-----------------------------------------------------------------|
A:---------------------------------5-5-5-5-5-5-5-5-2-2-2-2-2-2-2-2-|  x2
E:-0-0-0-0-0-0-0-0-5-5-5-5-5-5-5-5---------------------------------|

End: (no words)
G:---------------------------------------------|
D:---------------------------------------------|
A:-----------2-2-2-4-4-----------2-2-2---------|  x2
E:-4-4-4-5-5-----------4-4-4-5-5-------0-------|
Comments