Motion City Soundtrack - Time Turned Fragile Chords & Tabs

 

Time Turned Fragile Chords & Tabs

Motion City Soundtrack Chords & Tabs

Version: 1 Type: Bass Tab

Time Turned Fragile Bass Tab

   
Tabbed By : curtmcs		
e-mail: cs_cn66@hotmail.com

Tuning: G D A D (DROP-D)


(Intro)
G|--------------------------|
D|--------------------------| X4
A|--666----333-555----------|
D|-----666------------------|

(Verse)
G|------------------------------|
D|------------------------------|X4
A|--66----33-5555---------------|
D|-----66---------6666----------|

(Pre-Chorus   These are the things I think about...)
G|----------|
D|----------| X3
A|-1-3-6----|
D|----------|

CHORUS - PLAY INTRO TWICE

VERSE - PLAY TWICE
[ Tab from: http://www.guitartabs.cc/tabs/m/motion_city_soundtrack/time_turned_fragile_btab.html ]
PRE-CHORUS - PLAY 4 TIMES

BRIDGE
G|---------------------------------|
D|---------------------------------|
A|--------------------3333-5555----|X3
D|--3333-555-3333-555--------------|

CHROUS - PLAY 4 TIMES (ON 4TH TIME END WITH A-6)

BRIDGE 2 (Do you still believe in the stories told) Quite random...must know timing
G|------------|
D|------------|
A|-6----------|
D|---11-0-3-5-|

CHORUS - PLAY 4 TIMES

OUTRO
G|------------------------|
D|------------------------|
A|-----------3333-5555-6--|
D|-3333-3333--------------|

Any questions/corrections email cs_cn66@hotmail.com - PLEASE RATE!!