Motion City Soundtrack - The Future Freaks Me Out Chords & Tabs

 

The Future Freaks Me Out Chords & Tabs

Motion City Soundtrack Chords & Tabs

Version: 2 Type: Tab 0 ratings
1 star 2 stars 3 stars 4 stars 5 stars
comments

The Future Freaks Me Out Tab

The Future Freaks Me Out - Motion City Soundtrack

Intro Guitar 1 - "I'm On Fire..."
e------------------|
b----13-13-11--11--|
g--8-12-12-10--11--|
d--8-10-10-8---9---|
a--6---------------|
e------------------|

Intro Guitar 2
e---------------------------------------------------------|
b---------------------------------------------------------|
g--12-----12----------------------------------------------|
d----12-13--12-13-12-10-----------12-----12------------11-|
a-----------------------13-11-10----12-13---12-13-12-10---|
e-------------------------------13------------------------|

Verse Guitar 1&2 - "Betty Won't stop..."
e---------|
b---------|
g----5-3--|
d--5-6-3--|
a--6-3-1--|
e--3------|

Bridge Guitar 1
e---------------|
b---------------|
g--8-7-9--------|
d--8-8-9--9/8---|
a--6-6-7--9/8---|
e---------7/6---|

Bridge Guitar 2
e--------------------------------------------------------|
b--------------------------------------------------------|
g--12-----12------------------------12-------------------|
d----12-13--12-13-12-10-9-9-9-8-8-8---12-13-p12-h13-p12--|
a--------------------------------------------------------|
e--------------------------------------------------------|

e----------------------------------|
b--------------------------11------|
g---------12------------------4-p3-|
d-h13-p12---12-13-12-h13-10--------|
a----------------------------------|
e----------------------------------|

Chorus Guitar 1&2 - "I'm on Fire..."
e-----------------|
b-----------------|
g--8----------13--|
d--8-10-10-8--13--|
a--6-10-10-8--11--|
e----8--8--6------|

Bridge 2 Guitar 1
e----------------------|
b-------8-7-p6-h7-p6---|
g--8-------------------|
d--8---8---------------|
a--6-6-----------------|
e----------------------|
[ Tab from: http://www.guitartabs.cc/tabs/m/motion_city_soundtrack/the_future_freaks_me_out_tab_ver_2.html ]
Bridge 2 Guitar 2
e-------------------------------------------------------|
b-------------------------------------------------------|
g--12------12----------------12-----12------------------|
d----12-13---12-13-12-10-9-8---12-13--12-13-12-h13-15---|
a-------------------------------------------------------|
e-------------------------------------------------------|

Verse 2 Guitar 1&2 - "Betty Can't Quit..."
e------------------------------------|
b--x---------------11-11-11-11-11----|
g--x--x-8--8-10-8-----------------8--|
d--x--8-8--8-10-8-----------------8--|
a--x--6-x--6-8--6-----------------6--|
e------------------------------------|

Chorus Guitar 1&2 - "I'm on Fire..."
e-------------------|
b-------------------|
g--8----------13-8--|
d--8-10-10-8--13-8--|
a--6-10-10-8--11-6--|
e----8--8--6--------|

Betty Bridge Guitar 1 - "Betty I Need You..."
e----------|
b----------|
g--8-------|
d--8-10-8--|
a--6-10-8--|
e----8--6--|

Betty Bridge Guitar 2
e------------------------------------------------------|
b------------------------------------------------------|
g--12-8-12-10-10/13-13-12-12-10-12-8-12-10-8-13-13-13--|
d------------------------------------------------------|
a------------------------------------------------------|
e------------------------------------------------------|

e---------------|
b---------------|
g--15-15-15-12--|
d---------------|
a---------------|
e---------------|

All x2
e----------------------11-|  |--15-15-15-13-13-13-11-11-|
b--13-13-13-11-11---------|  |13------------------------|
g-----------------12-12---|x3|--------------------------|
d-------------------------|  |--------------------------|
a-------------------------|  |--------------------------|
e-------------------------|  |--------------------------|

e--15-13-13-13-11-11-11---------15-13-13-13-11-11-11-8--|
b-----------------------13-13-13---------------------10-|
g----------------------------------------------------10-|
d-------------------------------------------------------|
a-------------------------------------------------------|
e-------------------------------------------------------|

Chorus Guitar 1&2 - "I'm on Fire..."
e-------------------|
b-------------------|
g--8----------13/8--|
d--8-10-10-8--13/8--|
a--6-10-10-8--11/6--|
e----8--8--6--------|
Comments