Motion City Soundtrack - My Favorite Accident Chords & Tabs

 

My Favorite Accident Chords & Tabs

Motion City Soundtrack Chords & Tabs

Version: 1 Type: Tab 0 ratings
1 star 2 stars 3 stars 4 stars 5 stars
comments

My Favorite Accident Tab

Im not sure what the guitarist 2 does for the 1st verse
Guitar One
Intro
e|------------------------------------------------------------|
B|----9-------------------------------------------------------|
G|------10-8-10-8-6-8-10---6-----8----------------------------|
D|--8-------------------------6-------------------------------|
A|------------------------------------------------------------|
E|------------------------------------------------------------|

e|------------------------------------------------------------|
B|------------------------------------------------------------|
G|------10-8-10-8-10-8--10-8-10-8-10-8--10-8-10-8-10-11-------|
D|------------------------------------------------------------|
A|------------------------------------------------------------|
E|------------------------------------------------------------|

e|------------------------------------------------------------|
B|----9-------------------------------------------------------|
G|------10-8-10-8-6-8-10---6-----8----------------------------|
D|--8-------------------------6-------------------------------|
A|------------------------------------------------------------|
E|------------------------------------------------------------|

e|------------------------------------------------------------|
B|----9-------------------------------------------------------|
G|------10-8-10-8-6-8-10-8-10-8-10-8--10-8-10-8-10-11---------|
D|--8---------------------------------------------------------|
A|------------------------------------------------------------|
E|------------------------------------------------------------|

e|------------------------------------------------------------|
B|----9---------------------------------9--------------------9|
G|------10-8-10-8-6-8-10---6-----8--------10-8-10-8-6-8-10-8--|
D|--8-------------------------6-------8-----------------------|
A|------------------------------------------------------------|
E|------------------------------------------------------------|

Verse:
no guitar 1

Prechorus: 2x
Pickslide then

E-----------------------------------------------------|
B-----------------------------------------------------|
G-----------------------------------------------------|
D----8-8-8-8---6-6-6-6---4-4-4-4---4-4-4-4------------|
A----8-8-8-8---6-6-6-6---4-4-4-4---4-4-4-4------------|
E----6-6-6-6---4-4-4-4---2-2-2-2---2-2-2-2------------|
[ Tab from: http://www.guitartabs.cc/tabs/m/motion_city_soundtrack/my_favorite_accident_tab.html ]
Chorus 2x
E-----------------------------------------------------|
B-----------------------------------------------------|
G------------------------6-6-6-6---10-10--------------|
D----3-3-3-3---4-4-4-4---6-6-6-6---10-10--10-10-------|
A----3-3-3-3---4-4-4-4---4-4-4-4---8--8---10-10-------|
E----1-1-1-3---2-2-2-2--------------------8--8--------|

E-----------------------------------------------------|
B-----------------------------------------------------|
G------------------------6-6-6-6--8-8--10-10----------|
D----3-3-3-3---4-4-4-4---6-6-6-6--8-8--10-10----------|
A----3-3-3-3---4-4-4-4---4-4-4-4--6-6--8--8-----------|
E----1-1-1-3---2-2-2-2--------------------------------|

Intro 

Verse

Prechorus

Chorus

Post Chorus
Play chorus

Verse

Outro
e|------------------------------------------------------------|
B|------------------------------------------------------------|
G|------10-8-10-8-10-8--10-8-10-8-10-8--10-8-10-8-10-8--------|
D|------------------------------------------------------------|
A|------------------------------------------------------------|
E|------------------------------------------------------------|

Guitar 2
Intro
E-----------------------------------------------------|
B-----------------------------------------------------|
G-----------------------------------------------------|
D----8----6----4----4---------------------------------|
A----8----6----4----4---------------------------------|
E----6----4----2----2---------------------------------|


Verse 4x
im not exactly sure wot hes playing

Prechorus
e|------------------------------------------------------------|
B|----9---------------------------------9-----------------9---|
G|------10-8-10-8-6-8-10---6-----8--------10-8-10-8-6-8-6-----|
D|--8-------------------------6-------8-----------------------|
A|------------------------------------------------------------|
E|------------------------------------------------------------|

Chorus
E-----------------------------------------------------|
B-----------------------------------------------------|
G------------------------6-6-6-6---10-10--------------|
D----3-3-3-3---4-4-4-4---6-6-6-6---10-10--10-10-------|
A----3-3-3-3---4-4-4-4---4-4-4-4---8--8---10-10-------|
E----1-1-1-3---2-2-2-2--------------------8--8--------|

E-----------------------------------------------------|
B-----------------------------------------------------|
G------------------------6-6-6-6--8-8--10-10----------|
D----3-3-3-3---4-4-4-4---6-6-6-6--8-8--10-10----------|
A----3-3-3-3---4-4-4-4---4-4-4-4--6-6--8--8-----------|
E----1-1-1-3---2-2-2-2--------------------------------|


Intro 

Verse

Prechorus

Chorus

Post Chorus
Play chorus

Verse
Comments