Motion City Soundtrack - Modern Chemistry Chords & Tabs

 

Modern Chemistry Chords & Tabs

Motion City Soundtrack Chords & Tabs

Version: 1 Type: Tab 0 ratings
1 star 2 stars 3 stars 4 stars 5 stars
comments

Modern Chemistry Tab

   
-------------------------------------------------------------------------------
		 Modern Chemistry - Motion City Soundtrack
-------------------------------------------------------------------------------
Tabbed by: Randy 'Mep' Mershon
Email: mep@nugod.net

Tuning: Standard (EADGBe)

Intro:
Rhythm Guitar
e|---------------------------------|
B|---------------------------------|
G|-----------------7-7-7-7-7-7-7-7-|
D|-4-4-4-4-7-7-7-7-7-7-7-7-7-7-7-7-|
A|-4-4-4-4-7-7-7-7-5-5-5-5-5-5-5-5-|
E|-2-2-2-2-5-5-5-5-----------------|(x3) 
I believe in medication...
[ Tab from: http://www.guitartabs.cc/tabs/m/motion_city_soundtrack/modern_chemistry_tab.html ]
e|---------------------------------------------------|
B|---------------------------------------------------|
G|-6-6-6-6-6-6-6-6-6-6-6-6-7-7-7-7-7-7-7-7-7-7-7-7-7-|
D|-6-6-6-6-6-6-6-6-6-6-6-6-7-7-7-7-7-7-7-7-7-7-7-7-7-|
A|-4-4-4-4-4-4-4-4-4-4-4-4-5-5-5-5-5-5-5-5-5-5-5-5-5-|
E|---------------------------------------------------|(x1)
'Cause I believe in me yeah...

Pretty much the same riff over and over again, palm muted during the chorus.


| /  slide up
| \  slide down
| h  hammer-on
| p  pull-off
| ~  vibrato
| +  harmonic
| x  Mute note
===============================================================================

This is the dreaded "first tab" that everyone posts...I know it's weak, it's only the
rhythm part, but I'm just getting the hang of figuring stuff out by ear.  There's not
enough MCS tabs out there, someone needs to tab out all the parts to 'My Favorite
Accident'.  Someone who really knows what they're doing.
Comments