Motion City Soundtrack - Indoor Living Chords & Tabs

 

Indoor Living Chords & Tabs

Motion City Soundtrack Chords & Tabs

Version: 1 Type: Tab 0 ratings
1 star 2 stars 3 stars 4 stars 5 stars
comments

Indoor Living Tab

Artist: Motion City Soundtrack
Song: Indoor Living
Album: I Am The Movie
Standard Tuning 


Guitar 1 Intro

|--------------------------------2---2----------|
|----4-----4-----4----4-----2----------4--2-----|
|--------------------------------------------3--|
|------------------------------4---4------------|  X2
|--2---2-2---2-2--------------------------------|
|-------------------4---4-4---------------------|

Guitar 2 Intro

|-----------------------------------------------|
|-----------------------------------------------|
|-----------------------------------------------|
|-----------------------------------------------| X2
|-----------------------------------------------|
|-----------------------------------------------|
[ Tab from: http://www.guitartabs.cc/tabs/m/motion_city_soundtrack/indoor_living_tab.html ]
Guitar 1 Verse

|-----------------------------------------------|
|------4----------------------------------------|
|-----------------------------------------------|
|-----------------------------------------------| X1
|--2-2------------------------------------------|
|-----------------------------------------------|

Guitar 2 Verse

|-----------------------------------------------|
|-----------------------------------------------|
|--4-4-4-4-4-4-4-4------------------------------|
|--4-4-4-4-4-4-4-4-6-6-6-6-6-6-6-6--------------| X4
|--2-2-2-2-2-2-2-2-6-6-6-6-6-6-6-6--------------|
|------------------4-4-4-4-4-4-4-4--------------|


That's all I've got so far but when I finish I'll update this...Any questions
Email or add me to msn...hardpunx@msn.com
Comments