Motion City Soundtrack - Hold Me Down Chords & Tabs

 

Hold Me Down Chords & Tabs

Motion City Soundtrack Chords & Tabs

Version: 1 Type: Tab

Hold Me Down Tab

intro
e--------------------------------------------------------|
B--------------------------------------------------------|
G--------------------------------------------------------|
D-------13-11-------11-----------------------------------|
A-----11--------------11---------------------------------|
E-9-11--------9--8-------11-9h11p9-----------------------|

I found a letter that said:
"I'm sorry that you were asleep when I wrote these words down,"
You'd think I'd ought to be used to that by now.

e---------------------------|
B---------------------------|
G---------------------------|
D--11-----------------------|
A--9------------------------|
E--9------------------------|

Save for a few of those late night episodes,
Missed opportunities, and "I Don't Cares,"

e--------------------------------------------------------|
B--------------------------------------------------------|
G--------------------------------------------------------|
D-------13-11-------11-----------------------------------|
A-----11--------------11---------------------------------|
E-9-11--------9--8-------11-9h11p9-----------------------|

There's not a lot that I feel obliged to share or talk about.

e----------------------------------------------------------|
B-4-4-4----------------------------------------------------|
G-6-5-6---6-8-6-8------------------------------------------|
D-6-6-6---6-6-6-6------------------------------------------|
A-4-4-4---6-6-6-6------------------------------------------|
E---------8-8-8-8------------------------------------------|

I'll have my brother stop by this Saturday to pick up my things,
Just make sure you're not there.
This may sound bad, and don't take it the wrong way..
I love you, however,

e-------------------------|
B-------------------------|
G-------------------------|
D--11---------------------|
A--9----------------------|
E--9----------------------|

You hold me down [x4]
[ Tab from: http://www.guitartabs.cc/tabs/m/motion_city_soundtrack/hold_me_down_tab.html ]
e-------------------------------------------------------|
B-4-4-4--------8--8--8----------------------------------|
G-6-5-6---6-/--10-8--10---------------------------------|
D-6-6-6---6-/--10-10-10----4----------------------------|
A-4-4-4---6-/--8--8--8-----4----------------------------|
E---------8----------------2----------------------------|

You're the echoes of my everything,
You're the emptiness the whole world sings at night.
You're the laziness of afternoon,
You're the reason why I burst and why I bloom..
How will I break the news to you? [x2]

e----------------------------------------------------------|
B-4-4-4----------------------------------------------------|
G-6-5-6---6-8-6-8------------------------------------------|
D-6-6-6---6-6-6-6------------------------------------------|
A-4-4-4---6-6-6-6------------------------------------------|
E---------8-8-8-8------------------------------------------|

Cancel our dinner with Max and Coraline,
feed Jacky's gerbil and try to stay clean.
We'll talk it over after I've had some time alone to sort it out.

e-------------------------|
B-------------------------|
G-------------------------|
D--11---------------------|
A--9----------------------|
E--9----------------------|

You hold me down [x4]

e--------------------------------------------------------|
B-4-4-4--------8--8--8-----------------------------------|
G-6-5-6---6-/--10-8--10----------------------------------|
D-6-6-6---6-/--10-10-10----4-----------------------------|
A-4-4-4---6-/--8--8--8-----4-----------------------------|
E---------8----------------2-----------------------------|

You're the echoes of my everything,
You're the emptiness the whole world sings at night.
You're the laziness of afternoon,
You're the reason why I burst and why I bloomed..
You're the leaky sink of sentiment,
You're the failed attempts I never could forget.
You're the metaphors I can't create to comprehend this curse that I call love..
How will I break the news to you?