Motion City Soundtrack - Hold Me Down Chords & Tabs

 

Hold Me Down Chords & Tabs

Motion City Soundtrack Chords & Tabs

Version: 1 Type: Bass Tab

Hold Me Down Bass Tab

-------------------------------------------------------------------------------
			 Hold Me Down - Motion City Soundtrack
-------------------------------------------------------------------------------

Tabbed By : Curt Nilson
e-mail: cs_cn66@hotmail.com

Tuning: EADG standard
[ Tab from: http://www.guitartabs.cc/tabs/m/motion_city_soundtrack/hold_me_down_btab.html ]
Not sure about the 2nd verse...if anyone knows can they please email me with the corrections


Verse (0.36)

G|---------|
D|---------|
A|-4~--3~--|
E|---------|

Chorus (1.08)

G|----------------|
D|----------------|
A|----------------|
E|-2~--2~--2~--2~-|

Pre-Verse (1.24)

G|-----6-------|
D|-8-6---4~----|
A|-------------| x4
E|-------------|

Verse 

Chorus (2.28)

Pre-Verse (2.44 - 3.54)