Motion City Soundtrack - Everything Is Alright Chords & Tabs

 

Everything Is Alright Chords & Tabs

Motion City Soundtrack Chords & Tabs

Version: 3 Type: Tab

Everything Is Alright Tab

   
-------------------------------------------------------------------------------
		   Everything Is Alright – Motion City Soundtrack
-------------------------------------------------------------------------------
Tabbed by: crimson_addict78
Email: crimson_addict78@yahoo.com

Tuning: standard

Intro: no guitar 1
Guitar 2
e|-----------------|-----------------|-----------------|-----------------|
B|-----------------|-----------------|-----------------|-----------------|
G|--88888-8--------|--55555-5--------|--88888-8--------|--55555-5--------|
D|--88888-8--6-x8--|--55555-5--6-x8--|--88888-8--6-x8--|--55555-5--6-x8--|
A|--66666-6--6-----|--33333-3--6-----|--66666-6--6-----|--33333-3--6-----|
E|-----------4-----|-----------4-----|-----------4-----|-----------4-----|
Tell me that you’re alright..  Oh please tell me that you’re alright.

Intro cont..
Guitar 1
e|---------------------------|---------------------------------|
B|---------------------------|---------------------------------|
G|--88888-8-12h13-15-13------|---------------12h13-12-101010---|x2
D|--88888-8------------12h13-|-1010101010-10----------------13-|
A|--66666-6------------------|-1010101010-10-------------------|
E|---------------------------|--8 8 8 8 8- 8-------------------|

Guitar 2
e|-----------------|-----------------|-----------------|-----------------|
B|-----------------|-----------------|-----------------|-----------------|
G|--88888-8--------|--55555-5--------|--88888-8--------|--55555-5--------|
D|--88888-8--6-x8--|--55555-5--6-x8--|--88888-8--6-x8--|--55555-5--6-x8--|
A|--66666-6--6-----|--33333-3--6-----|--66666-6--6-----|--33333-3--6-----|
E|-----------4-----|-----------4-----|-----------4-----|-----------4-----|

Verse: no guitar 1
Guitar 2
e|---------------|------------------|------------------|------------------|
B|---------------|------------------|------------------|------------------|
G|--8~~~~~~~~----|--5~~~~~~~~-------|------------------|------------------|
D|--8~~~~~~~~----|--5~~~~~~~~-------|--3~~~~~~~~-------|--6~~~~~~~~-------|
A|--6~~~~~~~~----|--3~~~~~~~~-------|--3~~~~~~~~-------|--6~~~~~~~~-------|
E|---------------|------------------|--1~~~~~~~~-------|--4~~~~~~~~-------|
   Give me a reason..               to break with tradition.. 

e|--------------------------------|---------------------------------|
B|--------------------------------|---------------------------------|
G|--8888888888888888--------------|--5555555555555555---------------|
D|--8888888888888888--------------|--5555555555555555---------------|
A|--6666666666666666--------------|--3333333333333333---------------|
E|--------------------------------|---------------------------------|
  pm................                 ................
    Cause I hate the ocean...…       Talking  with strangers,...

e|--------------------------------|---------------------------------|
B|--------------------------------|---------------------------------|
G|--------------------------------|---------------------------------|
D|--3333333333333333--------------|--6666666666666666---------------|
A|--3333333333333333--------------|--6666666666666666---------------|
E|--1111111111111111--------------|--4444444444444444---------------|
  pm................                 .........
 I’m through with these pills...   “Are you feeling fine?”,...


Chorus:
Guitar 1
e|---------------------------|----------------------------------|
B|---------------------------|----------------------------------|
G|--88888-8-12h13-15-13------|----------------12h13-12-101010---|x2
D|--88888-8------------12h13-|--1010101010-10----------------13-|
A|--66666-6------------------|--1010101010-10-------------------|
E|---------------------------|---8 8 8 8 8- 8-------------------|
  Tell me that you’re alright.. Yeah everything is alright…         
Oh please tell me that you’re.. Yeah everything is alright..

e|-----------------|-----------------|-----------------|-----------------|
B|-----------------|-----------------|-----------------|-----------------|
G|--88888-8--------|--55555-5--------|--88888-8--------|--55555-5--------|
D|--88888-8--6-x8--|--55555-5--6-x8--|--88888-8--6-x8--|--55555-5--6-x8--|
A|--66666-6--6-----|--33333-3--6-----|--66666-6--6-----|--33333-3--6-----|
E|-----------4-----|-----------4-----|-----------4-----|-----------4-----|


Verse: no guitar 1&2
I'm sick of the things I do when I'm nervous 
Like cleaning the oven or checking my tires 
Or counting the number of tiles in the ceiling.. 
Head for the hills, the kitchen's on fire! 

Guitar 2
e|--------------------------------|---------------------------------|
B|--------------------------------|---------------------------------|
G|--8888888888888888--------------|--5555555555555555---------------|
D|--8888888888888888--------------|--5555555555555555---------------|
A|--6666666666666666--------------|--3333333333333333---------------|
E|--------------------------------|---------------------------------|
  pm................                 .........~~~~~~~
I used to rely on self- medication I guess I still do that from time to time…

e|--------------------------------|---------------------------------|
B|--------------------------------|---------------------------------|
G|--------------------------------|---------------------------------|
D|--3333333333333333--------------|--6666666666666666---------------|
A|--3333333333333333--------------|--6666666666666666---------------|
E|--1111111111111111--------------|--4444444444444444---------------|
  pm................                 .........~~~~~~~
But I’m getting better,...         “someday you’ll be fine”,...

[ Tab from: http://www.guitartabs.cc/tabs/m/motion_city_soundtrack/everything_is_alright_tab_ver_3.html ]
Chorus:
Guitar 1
e|---------------------------|----------------------------------|
B|---------------------------|----------------------------------|
G|--88888-8-12h13-15-13------|----------------12h13-12-101010---|x2
D|--88888-8------------12h13-|--1010101010-10----------------13-|
A|--66666-6------------------|--1010101010-10-------------------|
E|---------------------------|---8 8 8 8 8- 8-------------------|
 Tell me that you’re alright... Yeah everything is alright…         
Oh please tell me that you’re.. Yeah everything is alright..

Guitar 2
e|-----------------|-----------------|-----------------|-----------------|
B|-----------------|-----------------|-----------------|-----------------|
G|--88888-8--------|--55555-5--------|--88888-8--------|--55555-5--------|
D|--88888-8--6-x8--|--55555-5--6-x8--|--88888-8--6-x8--|--55555-5--6-x8--|
A|--66666-6--6-----|--33333-3--6-----|--66666-6--6-----|--33333-3--6-----|
E|-----------4-----|-----------4-----|-----------4-----|-----------4-----|


Bridge:
Guitar 1 & 2
e|--------------------------------------------------------------|
B|--------------------------------------------------------------|
G|--7--5--8~----7--5--8~----7--5--8~----7--5--8~--88888888------|
D|--7--5--8~----7--5--8~----7--5--8~----7--5--8~--88888888------|
A|--5--3--6~----5--3--6~----5--3--6~----5--3--6~--66666666------|
E|--------------------------------------------------------------|


Guitar 1
e|----------------------------------------------------------------------|
B|---------------13h16--------------13h16--------------13h16-------------|
G|--7--5--8~13h15------7--5--8~13h15------7--5--8~13h15------7--5--8~---|
D|--7--5--8~-----------7--5--8~-----------7--5--8~-----------7--5--8~---|
A|--5--3--6~-----------5--3--6~-----------5--3--6~-----------5--3--6~---|
E|----------------------------------------------------------------------|

Guitar 2 
e-----------------------------------------------------------------------|
B|----------------------------------------------------------------------|
G|--7--5--8~-----------7--5--8~-----------7--5--8~-----------7--5--8~---|
D|--7--5--8~-----------7--5--8~-----------7--5--8~-----------7--5--8~---|
A|--5--3--6~-----------5--3--6~-----------5--3--6~-----------5--3--6~---|
E|----------------------------------------------------------------------|
						
--No guitar 1
Guitar 2      | Guitar 1&2
e|------------|-----------------------|
B|------------|-----------------------|
G|--5~~--3~~--|-----------------------|
D|--5~~--3~~--|--6666666666666666-6---|
A|--3~~--1~~--|--6666666666666666-6---|
E|------------|--4444444444444444-4---|
  strum up     pm................ .


e|--2-------------|------------------|------------------|-------------------|
B|--4-------------|------------------|------------------|-------------------|
G|--3-x16---------|--5---------------|--3—--------------|-------------------|
D|--1-------------|--5-x16-----------|--3-x16-----------|--6----------------|
A|----------------|--3---------------|--1---------------|--6-x16------------|
E|----------------|------------------|------------------|--4----------------|
 Give me a reason  to end this ...   to break with ...  to fall and divide
      

e|--2------------|------------------|------------------|--------------------|
B|--4------------|------------------|------------------|--------------------|
G|--3-x16--------|--5---------------|--3—--------------|--------------------|
D|--1------------|--5-x16-----------|--3-x16-----------|--6-----------------|
A|---------------|--3---------------|--1---------------|--6-x16-------------|
E|---------------|------------------|------------------|--4-----------------|
So let’s not get.. away with the.. of healing relations  I don’t want to...
   

Chorus:
Guitar 1
e|---------------------------|----------------------------------|
B|---------------------------|----------------------------------|
G|--88888-8-12h13-15-13------|----------------12h13-12-101010---|x2
D|--88888-8------------12h13-|--1010101010-10----------------13-|
A|--66666-6------------------|--1010101010-10-------------------|
E|---------------------------|---8 8 8 8 8- 8-------------------|
  Tell me that you’re alright.. Yeah everything is alright…         
Oh please tell me that you’re.. Yeah everything is alright..

Guitar 2
e|-----------------|-----------------|-----------------|-----------------|
B|-----------------|-----------------|-----------------|-----------------|
G|--88888-8--------|--55555-5--------|--88888-8--------|--55555-5--------|
D|--88888-8--6-x8--|--55555-5--6-x8--|--88888-8--6-x8--|--55555-5--6-x8--|
A|--66666-6--6-----|--33333-3--6-----|--66666-6--6-----|--33333-3--6-----|
E|-----------4-----|-----------4-----|-----------4-----|-----------4-----|


Chorus x1
(alright)
Tell me that you're alright, (Hi, everything's great)
Yeah everything is alright. (Hey, everything's fine)
Oh please tell me that you're alright, (Hi, everything's great)
Yeah everything is alright.

Outro: both guitars
e---------------------------------------------------------------------------|
B|--------------------------------------------------------------------------|
G|----7--5--8~----------7--5--8~------------7--5--8~------------7--5--3~~---|
D|----7--5--8~----------7--5--8~------------7--5--8~------------7--5--3~~---|
A|----5--3--6~----------5--3--6~------------5--3--6~------------5--3--1~~---|
E|---------------------------------------------------------------------~---||
 (Hey, everything's fine) ,,,,


| /  slide up
| \  slide down
| h  hammer-on
| p  pull-off
| ~  vibrato
| +  harmonic
| x  Mute note
===============================================================================

Is it alright?