Motion City Soundtrack - Everything Is Alright Chords & Tabs

 

Everything Is Alright Chords & Tabs

Motion City Soundtrack Chords & Tabs

Version: 1 Type: Bass Tab 0 ratings
1 star 2 stars 3 stars 4 stars 5 stars
comments

Everything Is Alright Bass Tab

   
Everything Is Alright
Motion City Soundtrack
Tabbed by Joe Ludwig (Bassbeats098)
E-mail me at Reggaempire94@yahoo.com

Standard Tuning [EADG]


Intro/chorus
G|-------------------------------------|
D|-------------------------------------|
A|-66666-6---------33333-3-------------|
E|---------44444444---------4444444----|

Verse (only hold the notes out like this for the first verse)
G|-----------------|
D|-----------------|
A|-6~--3~----------|
E|---------1~--4~--|

Verse continued (play this until the chorus)
G|-----------------------------------------|
D|-----------------------------------------|
A|-66666666-33333333-----------------------|
E|--------------------11111111-44444444----|

Chorus (played twice)
G|-------------------------------------|
D|-------------------------------------|
A|-66666-6---------33333-3-------------|
E|---------44444444---------4444444----|

Second Verse
G|-----------------------------------------|
D|-----------------------------------------|
A|-66666666-33333333-----------------------|
E|--------------------11111111-44444444----|
[ Tab from: http://www.guitartabs.cc/tabs/m/motion_city_soundtrack/everything_is_alright_btab.html ]
Chorus (played twice)
G|-------------------------------------|
D|-------------------------------------|
A|-66666-6---------33333-3-------------|
E|---------44444444---------4444444----|

Bridge (starts right after chorus, and is played many times)
G|--------|
D|--------|
A|-5-3-6~-|
E|--------|

After you play that for a while, let the last D# ring out, then play this note getting 
and louder.
G|---------------|
D|---------------|
A|---------------|
E|-444444444444-|

after that happens, justin will start singing 'give me a reason- dont believe a word! to 
this discussion,' and you'll play the verse again:
G|-----------------------------------------|
D|-----------------------------------------|
A|-66666666-33333333-----------------------|
E|--------------------11111111-44444444----|

and the chorus again
Chorus (played twice)
G|-------------------------------------|
D|-------------------------------------|
A|-66666-6---------33333-3-------------|
E|---------44444444---------4444444----|

and finally, end with the first part of the bridge played a few times
G|--------|
D|--------|
A|-5-3-6~-|
E|--------|


Again, please rate this tab
Good luck
This tab is probably 100% correct
Comments