Mother Love Bone - Come Bite The Apple Chords & Tabs

 

Come Bite The Apple Chords & Tabs

Mother Love Bone Chords & Tabs

Version: 1 Type: Tab 0 ratings
1 star 2 stars 3 stars 4 stars 5 stars
comments

Come Bite The Apple Tab

Intro:
|----------------------------------------------------
|----------------------------------------------------
|------------------9-10-9---------9-10-10s12--10-9---
|--7h9--7h9--9s12----------10s12---------------------
|----------------------------------------------------
|----------------------------------------------------
[ Tab from: http://www.guitartabs.cc/tabs/m/mother_love_bone/come_bite_the_apple_tab.html ]
|----------------------------------------------------
|----------------------------------------------------
|--------9-10-9--------9-10-9--------9-10-10s12------
|--10-12---------10s12---------10s12-----------------
|----------------------------------------------------
|----------------------------------------------------

|----------------------------------------------------
|------------12------------13------------------------
|--10-9-9s14-----12b-12--14----12~-------------------
|----------------------------------------------------
|----------------------------------------------------
|----------------------------------------------------


Notes:
This is my first tab, but i think i nailed this one.. Email me if you want the rest of the song tabbed.. i'm workin on it. Later, John Gaston
Comments