Mostly Autumn - Heroes Never Die Chords & Tabs

 

Heroes Never Die Chords & Tabs

Mostly Autumn Chords & Tabs

Version: 1 Type: Tab 0 ratings
1 star 2 stars 3 stars 4 stars 5 stars
comments

Heroes Never Die Tab

   
#----------------------------------PLEASE NOTE---------------------------------#
#This file is the author's own work and represents their interpretation of the #
#song. You may only use this file for private study, scholarship, or research. #
#------------------------------------------------------------------------------##

                                HEROES NEVER DIE
                          As recorded by Mostly Autumn
                  (From the Double Album CATCH THE SPIRIT)

Transcribed by ted@lords-of-thighs.de
Well this one is just from my meories so its not completely accurate I guess
Listen for the whole picking yourself this is just the basics but enough to play it and to be recognized

 Intro 2x
|-5-----6-----3-----------3-1-----0-1-3-1-0-0-----------------------3-|
|---3-----3-----2-------2---3-3-------------1-1---0-0h1p0-------0h1---|
|-----3-----3-----2---2-----2---2-----------2---2---------2---2-------|
|-------------------2-------0---------------2---------------2---------|
|-------------------------------------------0-------------------------|
|---------------------------------------------------------------------|


|---0-------0-------0---------3-----------0-----------3----|
|-3---3---3---3---1---0h1---------0h1---------0h1----------|
|-------2-------2---------2-----2-----2-----2-----2--------|
|-0-------0-----------------2-----------2-----------2------|
|-----------------0----------------------------------------|
|----------------------------------------------------------|

For the verse play around with this  or just use the chords Em C D 
|--------------------------------------|
|-----8-0------8-0---------7-8-7-0-----|
|---9--------9-------7---7---------7---|
|-9-------10-------7---7-------------7-|
|--------------------------------------|
|--------------------------------------|


|----------------------|------------------|
|-----8-0------8-0-----|-----7-8-7-0------|
|---9--------9-------7-|---7---------7----|
|-9-------10-------7---|-7-------------7--|
|----------------------|------------------|
|----------------------|------------------|

The solo starts this way 
|------------------------------------------------------------------|
|-13----12h=13p=12------------------13--12h13p=12------------------|
|-------------------12--10--9----------------------12--10--9-------|
|------------------------------10-----------------------------10---|
|------------------------------------------------------------------|
|------------------------------------------------------------------|

[ Tab from: http://www.guitartabs.cc/tabs/m/mostly_autumn/heroes_never_die_tab.html ]
|------------------------------------------------------------------------|
|-13--12h=13p=12---------------------12--12h=13p=12----------------------|
|-----------------12--10--9--------------------------12--10--9-----------|
|----------------------------10b12------------------------------10b12----|
|------------------------------------------------------------------------|
|------------------------------------------------------------------------|


    Am       G                F                           Am                               
The ways the ins and outs of heaven still elude us to the end
    M         G               F                               Am
the tears the sun the rain I feel them on my face aigainst my skin we loved you 
G                F  
then we love you still
                                              C      G     Am      D                        
and don´t you know....... dont you know that heroes never die they sail forever


Slow the rain falls the memories blowing through
I stand with arms outstretched to catch the warmth of you
Eyes to the heavens screaming at the sky trying to send you messages still choking on goodbye
G        D
and I wonder why

Gold November yellow brown and green 
I try to picture you still somewhere in between
Cold the night falls the shadows are drawing in
the glimpse I had of you is torn into the wind
G       D                         G             D                          
And I wonder why tracing paths we search the stormy sky

The ways the ins...............

Close my eyes now and focus on the light
you are more beatiful and never out of sight

Em
And tears that fall are blood from the heart from the moment that we part
May I offer those tears for the love of the years for the love

Hm                   A                         G                                              Hm
The ways the ins and outs of heaven still elude us to the end 
                       A                      G                                                       Hm                           A                            G 
the tears the sun the rain I feel them on my face against my skin we loved you then we love you still

and dont you know dont you know

Dm           C                Bb                         Dm                  
the ways the ins and outs of heaven still elude us to the end  
            C              Bb                            Dm                       if he´s the sun the rain I feel him on my face against my skin 
           C               Bb                       Dm                                     
and when I opened up that door and think of where we used to roam,  
              C                    Bb
and laugh and smile and drink with friends with all the love you know we have dont you know
     F      C     Dm       G       C     
that heroes never die they sail forever


Comments