Most Precious Blood - Apparition Chords & Tabs

 

Apparition Chords & Tabs

Most Precious Blood Chords & Tabs

Version: 1 Type: Tab 0 ratings
1 star 2 stars 3 stars 4 stars 5 stars
comments

Apparition Tab

i couldn't find a tab for this song anywhere so i decided to get off my lazy ass and
figure her out..awesome song by the best hardcore band outta new york city

Tabbed by: me
any suggestions/corrections email me at: kissmyass@hotmail.com :)

standard tuning

Verse/ Bridge

E|--------------------|--------------------| 
B|--------------------|--9-9-9--8-8-8------|
G|--5-3-5--666--------|--------------------|
D|--5-3-5--666--------|--6-6-6--5-5-5------|
A|--3-1-3--444--------|--------------------|
E|--------------------|--------------------|

Pre Chorus

E|-------------------------|
B|--9-8-9-----9-8-9--------|
G|---------5---------5-5-5-|
D|--6-5-6--5--6-5-6--5-5-5-|
A|---------3---------3-3-3-|
E|-------------------------|

Chorus
[ Tab from: http://www.guitartabs.cc/tabs/m/most_precious_blood/apparition_tab.html ]
E|-------------------------------------------------------------------------|
B|--8-8-8-8-8-8-8-8----------9-8-6-----------------------------------8-9-8-6
G|-------------------8-8-8-8--------8--10-10-10-10-10-10-7-7-7-7-7-7-------|
D|--5-5-5-5-5-5-5-5----------6-5-3-----------------------------------5-6-5-3
A|-------------------6-6-6-6--------6--8--8--8--8--8--8--5-5-5-5-5-5-------|
E|-------------------------------------------------------------------------|

E|-------------------------------------------------------------------------|
B|--8-8-8-8-8-8-----------9-8-6------------------------9-8--8-8-8-8-8------|
G|---------------8-8-8-8---------8--10-10-10-10-10-10----------------------|
D|--5-5-5-5-5-5-----------6-5-3------------------------6-5--5-5-5-5-5------|
A|---------------6-6-6-6---------6--8--8--8--8--8--8-----------------------|
E|-------------------------------------------------------------------------|

Outro/ Gtr. 2 Chorus

E|-------------------------------------------------------------------------|
B|--8-8-8-8-8-8------------------------------------------------------------|
G|---------------8-8-8-8-8-8--10-10-10-10-10-10-7-7-7-7-7-7----------------|
D|--6-6-6-6-6-6------------------------------------------------------------|
A|---------------6-6-6-6-6-6--8--8--8--8--8--8---5-5-5-5-5-5---------------|
E|-------------------------------------------------------------------------|

Figure out the amount of repeats yourself its not hard
Comments