Mos Def - Got Chords & Tabs

 

Got Chords & Tabs

Mos Def Chords & Tabs

Version: 1 Type: Bass Tab 0 ratings
1 star 2 stars 3 stars 4 stars 5 stars
comments

Got Bass Tab

   
-------------------------------------------------------------------------------
			     GOT - Mos Def
-------------------------------------------------------------------------------

Tabbed By : John-Michael Torres
e-mail: insertmusichere@mail.com

Tuning: Standard

Pall-muted throughout.
[ Tab from: http://www.guitartabs.cc/tabs/m/mos_def/got_btab.html ]
Verses:
G|---------------------------------------------------------------------------|
D|-----------------2--------------(XXX--XXXXXX)------------------------------|
A|-0h2---------0h2---3-------------------------------------------------------|
E|---------------------------------------------------------------------------|

Chorus:
G|-----------2---------------------------------------------------------------|
D|-(2-3-4-5)-----2---2h5---0-----0-0-2---------------------------------------|
A|-------------------------------------2-------------------------------------|
E|---------------------------------------------------------------------------|

()=played some repetitions and not others. Listen for exact places these notes are played.

| /  slide up
| \  slide down
| h  hammer-on
| p  pull-off
| ~  vibrato
| +  harmonic
| x  Mute note
===============================================================================
Comments