Morty - Like You Chords & Tabs

 

Like You Chords & Tabs

Morty Chords & Tabs

Version: 1 Type: Tab 0 ratings
1 star 2 stars 3 stars 4 stars 5 stars
comments

Like You Tab

   
-------------------------------------------------------------------------------
			     Like You - 
-------------------------------------------------------------------------------

Tabbed by: Kyle M.
Email:underchuck21@hotmail.com


Tuning:Standard

Intro: 4x
e|---------------------------------------------------------------------------|
B|---------------------------------------------------------------------------|
G|---------------------------------------------------------------------------|
D|-----3--3--3--3---2-3----3--3--3--3--2-3---5-5---------------5-------------|
A|-----5--5--5--5---5-5----5--5--5--5--5-5---3-3-3-3--5-5-5-5--3-------------|
E|----------------------------------------------------3-3-3-3----------------|
[ Tab from: http://www.guitartabs.cc/tabs/m/morty/like_you_tab.html ]
Chorus:2x
e|---------------------------------------------------------------------------|
B|---------------------------------------------------------------------------|
G|--7---7-7-7-5-7---7--7-7-7-5-7--5-5-5-5-5-5-5-5----------------------------|
D|--7---7-7-7-5-7---7--7-7-7-5-7--5-5-5-5-5-5-5-5--5-5-5-5-5-5-5-5-----------|
A|--5---5-5-5-3-5---5--5-5-5-3-5--3-3-3-3-3-3-3-3--5-5-5-5-5-5-5-5-----------|
E|-------------------------------------------------3-3-3-3-3-3-3-3-----------|

e|---------------------------------------------------------------------------|
B|---------------------------------------------------------------------------|
G|---------------------------------------------------------------------------|
D|--3---3-3-3-3-3-3-3-3-3-3-3--5-5/6-6-6-6-6-6-6-6-6-6-6-6-6----8-8-8-8-8-8--|
A|--3---3-3-3-3-3-3-3-3-3-3-3--5-5/6-6-6-6-6-6-6-6-6-6-6-6-6----8-8-8-8-8-8--|
E|--1---1-1-1-1-1-1-1-1-1-1-1--3-3/4-4-4-4-4-4-4-4-4-4-4-4-4----6-6-6-6-6-6--|

e|---------------------------------------------------------------------------|
B|---------------------------------------------------------------------------|
G|---------------------------------------------------------------------------|
D|--8-8-8-8-8-8---6-6-6------------------------------------------------------|
A|--8-8-8-8-8-8---6-6-6------------------------------------------------------|
E|--6-6-6-6-6-6---8-8-8--let ring--------------------------------------------|

Thats it.  pretty simple but wicked tune


| /  slide up
| \  slide down
| h  hammer-on
| p  pull-off
| ~  vibrato
| +  harmonic
| x  Mute note
Comments