Mortification - Toxic Shock Chords & Tabs

 

Toxic Shock Chords & Tabs

Mortification Chords & Tabs

Version: 2 Type: Tab 0 ratings
1 star 2 stars 3 stars 4 stars 5 stars
comments

Toxic Shock Tab

   
Toxic Shock
Mortification
Words and Music by Steve Rowe
1995 Intense Records
Tabbed by conorlarkin@hotmail.com


Intro
|---------------------------------------------------------------|
|---------------------------------------------------------------|
|---------------------------------------------------------------|
|-----7-7-5-5-----5-5-------------------------------------------|
|--5----------7-7-----7-7-5-5-4-4-------------------------------|
|---------------------------------------------------------------|

Riff A                                End of A
|------------------------------------|-------------------------|
|------------------------------------|-------------------------|
|------------------------------------|-----9-------------------|
|-----5-5-3-3-0-0-3-3-0-0------------|-----9-------------------|
|--3-----------------------3-3-2-2---|-----7-------------------|
|------------------------------------|-------------------------|


Riff B
|--------------------------|-----------------------------------|
|--------------------------|-----------------------------------|
|--------------------------|-----------------------------------|
|--5-----------7-----------|--5-----------------2--------------|
|--5-----------7-----------|--5-------------2-3----------------|
|--3-000-0-0---5-000--0-0--|--3-000--0-0--3--------------------|
[ Tab from: http://www.guitartabs.cc/tabs/m/mortification/toxic_shock_tab_ver_2.html ]
Riff C
|--------------------------------------------------------------|
|--------------------------------------------------------------|
|--------------------------------------------------------------|
|--2h3p2--------2--2--2-2--------------------------------------|
|--------3p2h3--2--2--2-2--------------------------------------|
|---------------0--0--0-0--------------------------------------|

Riff D
|---------------------------------|--------|--------------------|
|---------------------------------|--------|--------------------|
|---------------------------------|--------|*-4-4-------------*-|
|---------------------------------|--5--7--|*-4-4-5-4-2---9\--*-|
|-5--5-5-5/8--8-8-8\5--5-5---5/8--|--5--7--|--2-2-5-4-2---7\----|
|-5--5-5-5/8--8-8-8\5--5-5---5/8--|--------|------3-2-0---0-----|

Fill A
|--------------------------------------------------------------|
|--------------------------------------------------------------|
|--------------------------------------------------------------|
|--2----2-----3------------------------------------------------|
|--2----2-----3------------------------------------------------|
|--0----0-----1------------------------------------------------|


Over indulgence in substance you require
To settle down, to feel sane, the hit is in your mind
Veins pumping, eyes lost, hideous life of pain
It hates you now, the joy is gone, death crime insane

Drug free body, you must decide
Drug free body, beware the toxic shock

A life of compulsion, excessive in every way
No moderation, more sensation, feelings inside your brain
Young bodies may take it, but age will tell the toll
Satan plans to kill you young, possession growing strong


Song Order
Bass
Intro x2
Riff A x2
Intro x2
Riff A x2
Riff B x4
Riff A x4
Riff B x4
Riff A x4
Riff C x9
Rif D x1 w/repeat x4
Fill A x1
Riff B x4
Riff A x4
Riff B x4
Riff A x4
Riff C x14
Riff D x1
Riff B x4
Riff A x4

conorlarkin@hotmail.com
Comments