Mortification - Metal Crusade Chords & Tabs

 

Metal Crusade Chords & Tabs

Mortification Chords & Tabs

Version: 2 Type: Tab 0 ratings
1 star 2 stars 3 stars 4 stars 5 stars
comments

Metal Crusade Tab

Metal Crusade by:
Mortification: Hammer of God
Metal Blade Records inc. and 
        Rowe Productions (A movement of 
        extreme power)
Distributed by Diamante Music Group, 
Newport Beach, CA.
Tabbed by: Bob Barker

CD is tuned in D so I would detune your guitar and play everything 2 frest up.
Listen to "hammer of god", and "Medley"

...bass harmonics

Guitar intro:
e-----------------------------------|
b-----------------------------------|
g-----------------------------------|
d-----------------------------------|
a--5-4------5-4---7----5-4----------|
E------5/7------5----------5/7----2-|

e-----------------------------------|
b-----------------------------------|
g-----------------------------------|
d-----------------------------------|
a--5-4------5-4---7----5-4----------|
E------5/7------5----------5/7------|

e----------------------------|
b----------------------------|
g----------------------------|
d----------------------------|   2x
a--9-7---6-7-6---9--7-6---9--|
E------7-------7--------7----|

e-----------------------------------|
b-----------------------------------|
g-----------------------------------|
d-----------------------------------|
a--5-4------5-4---7----5-4----------|
E------5/7------5----------5/7----2-|


e-----------------------------------|
b-----------------------------------|
g-----------------------------------|
d-----------------------------------|
a--5-4------5-4---7----5-4--9-------|
E------5/7------5----------5--------|


Verse 1:
e------------------------------------------------
b------------------------------------------------
g--6--6-6--6-6-6--6-6-6--6-6-6--6-6-6--6-6-\4-4-4
d--6--6-6--6-6-6--6-6-6--6-6-6--6-6-6--6-6-\4-4-4
a--4--4-4--4-4-4--4-4-4--4-4-4--4-4-4--4-4-\2-2-2
E------------------------------------------------


e------------------------------------------------
b------------------------------------------------
g--6--6-6--6-6-6--6-6-6--6-6-6--6-6-6--6-6-\2-2-2
d--6--6-6--6-6-6--6-6-6--6-6-6--6-6-6--6-6-\2-2-2
a--4--4-4--4-4-4--4-4-4--4-4-4--4-4-4--4-4-\0-0-0
E------------------------------------------------

2x

Chorus:
e------------------------------------------------
b------------------------------------------------
g--2--2-2--2-2-2--2-2-2--2-2-2--2-2-2--2-2-------
d--2--2-2--2-2-2--2-2-2--2-2-2--2-2-2--2-2---5-\4
a--0--0-0--0-0-0--0-0-0--0-0-0--0-0-0--0-0---5-\4
E--------------------------------------------3-\2


e------------------------------------------------
b------------------------------------------------
g------------------------------------------------
d--2--2-2--2-2-2--2-2-2--2-2-2--2-2-2--2-2--2-2-2
a--2--2-2--2-2-2--2-2-2--2-2-2--2-2-2--2-2--2-2-2
E--0--0-0--0-0-0--0-0-0--0-0-0--0-0-0--0-0--0-0-0

2x

e------------------------------------------------
b------------------------------------------------
g--4--4-4--4-4-4--4-4-4--4-4-4--4-4-4--4-4-------
d--4--4-4--4-4-4--4-4-4--4-4-4--4-4-4--4-4---7-\6
a--2--2-2--2-2-2--2-2-2--2-2-2--2-2-2--2-2---7-\6
E--------------------------------------------5-\4


e-------------------------------------------------
b-------------------------------------------------
g-------------------------------------------------
d--4--4-4--4-4-4--4-4-4--4-4-4--4-4-4--4-4--4-4-4-
a--4--4-4--4-4-4--4-4-4--4-4-4--4-4-4--4-4--4-4-4-
E--2--2-2--2-2-2--2-2-2--2-2-2--2-2-2--2-2--2-2-2-

2x


e------------------------------------------------
b------------------------------------------------
g----------------2---------2-------2-------2-----
d--4-4-4---------2--6------2---4---2---6---2---4-
a--2-2-2---------0--6------0---2---0---6---0---2-
E--2-2-2------------4----------2-------4-------2-

e------------------|
b------------------|
g------------------|
d--7-\6---2-----2--|
a--5-\6---0-----2--|
E--5-\4---0-----0--|
[ Tab from: http://www.guitartabs.cc/tabs/m/mortification/metal_crusade_tab_ver_2.html ]
...Verse 1
Verse 2:   same as verse one exept have the root on the d-string
not the a-string

...Chorus

guitar solo
(hammer)
e--12p7p5h7-12p7p5h7-12p7p5h7-12p7p5h7-
b--------------------------------------
g--------------------------------------
d--------------------------------------    2x
a--------------------------------------
E--------------------------------------

e--14p9p7h9-14p9p7h9-14p9p7h9-14p9p7h9-
b--------------------------------------
g--------------------------------------
d--------------------------------------    2x
a--------------------------------------
E--------------------------------------
(pick)
e--16--------16--------16-------16--------
b----14p12h14--14p12h14-14p12h14-14p12h14-
g-----------------------------------------
d-----------------------------------------  3x
a-----------------------------------------
E-----------------------------------------

e--------------------------------------------
b--16p14p12-16p14p12-16p14p12-16p14p12----(14)
g--------------------------------------------
d--------------------------------------------
a--------------------------------------------
E--------------------------------------------

e----------------------------------------------
b--14p12----12---------------------------------
g--------14----14-11---------------------------
d----------------------------------------------
a------------------------------2-4-4--2-2-4----
E-------------------------5-5-2--------5-------


e----------------------------------------------
b----------------------------------------------
g-14-14-11-------------------------------------
d---------14-11--14-14-11----------------------
a-------------------------14-12--14-14-12------
E----------------------------------------14-12-

e-------------|
b-------------|
g-------------|
d-------------|
a-------------|
E--14-14-12-7-|

e----------------------------------------
b----------------------------------------
g----------------------------------------
d--------------------------------------12
a-----4-----4-----4-----4-----4-----4----
E--2-5---2-5---2-5---2-5---2-5---2-5-----

e-------------------------------------------------
b--17p13p10h13-17p13p10h13-17p13p10h13-17p13p10h13
g-------------------------------------------------
d-------------------------------------------------
a-------------------------------------------------
E-------------------------------------------------

2x

e-------------------------------------------------
b--17p12p9h12-17p12p9h12-17p12p9h12-17p12p9h12----
g-------------------------------------------------
d-------------------------------------------------
a-------------------------------------------------
E-------------------------------------------------

2x

e-------------------------------------------------
b--17p13p10h13-17p13p10h13-17p13p10h13-17p13p10h13
g-------------------------------------------------
d-------------------------------------------------
a-------------------------------------------------
E-------------------------------------------------

2x

e--14------------------------------------------
b----------------------------------------------
g---------------4-2--2---------------11--11--11
d-------------------4-4----2-0--0--------------
a------------------------------2-2-------------
E----------------------------------------------


e-----------------------------------------------14
b-------------------------------------------------
g---------------------------------11-(14)--11-9---
d------------------------------4------------------
a------9-(11)---9--(11)--9------------------------
E--2-------------------------2--------------------

...bass harmonics
...guitar intro 

That's all you really need to know (besides the bass harmonics),
please e-mail me if you know it.
guitar28@Yahoo.com
Comments