Mortification - Influence Chords & Tabs

 

Influence Chords & Tabs

Mortification Chords & Tabs

Version: 2 Type: Bass Tab 0 ratings
1 star 2 stars 3 stars 4 stars 5 stars
comments

Influence Bass Tab

song: "influence" 
band: mortification
off of "triumph of mercy"
all that other legal shtuff right here.

ok,there's 3 main parts

(in drop d tuning)

intro and verse:

G|-------------------------------------------------------------
D|-------------------------------------------------------------
A|--3-----5------------1-0-0-----------------------------------
D|----0-0---0-0-0---3------------------------------------------


then the chorus:
[ Tab from: http://www.guitartabs.cc/tabs/m/mortification/influence_btab_ver_2.html ]
G|--------------------------------------------------------------
D|--------------------------------------------------------------
A|------------------------------0-------------------------------
D|--0--3--0-----0--5--8-----3-2---------------------------------
     
    "Influence, in your life..."

then the bridge type thing:

G|------2---2---2---2---2---2---------0---0---0---0---0---0---0--
D|----0---0---0---0---0---0---0----------------------------------
A|----------------------------------3---3---3---3---3---3---3---3
D|---------------------------------------------------------------

     "Go through all the land......and preach the gospel..."


those are the 3 main parts,listen to the cd to get the rythm,and how 
many times to play each. mortification is awesome,not just because 
they have a wicked metal sound,but mainly because they preach the 
awesome saving message of Jesus Christ. if you wanna talk with me,yell 
at me,whatever,mail me at preachaja@hotmail.com   God Bless!


Comments