Mortification - Grind Planetarium Chords & Tabs

 

Grind Planetarium Chords & Tabs

Mortification Chords & Tabs

Version: 1 Type: Tab 0 ratings
1 star 2 stars 3 stars 4 stars 5 stars
comments

Grind Planetarium Tab

   
Grind Planetarium
Mortification
Words and Music by Steve Rowe b
Copyright 1993 Intense Records
Tabbed by James Donnelly
conorlarkin@hotmail.com

Tune to D

Riff A
Guitar One              Guitar Two
|---------------------|-----------------------------------------|
|---------------------|-----------------------------------------|
|---------------------|-----------------------------------------|
|--0--------2----4----|--3--------5----7------------------------|
|----0--------1----3--|----3-0-1----4----6----------------------|
|------2-3------------|-----------------------------------------|

Riff B
|-----------------------------------|
|-----------------------------------|
|-----------12----------------------|
|--2-----11-------------------------|
|--2---10----------2--33333--44444--|
|--0---------------0--11111--22222--|

Riff C
|-------------------------------------|----------------------|
|-------------------------------------|----------------------|
|-------------------------------------|----------------------|
|--------------------3333222----------|----------------------|
|-----------33332222---------3333222--|--5555----------------|
|--11111111---------------------------|------5555--22223333--|

|-------------------------------------|
|-------------------------------------|
|-------------------------------------|
|--2222-----4444----------------------|
|------1111-----3333------------------|
|-------------------------------------|

Riff D
|----------------------|
|----------------------|
|*--------------------*|
|*-2---6666-5555-4444-*|
|--2---8888-7777-6666--|
|--0-------------------|

Riff E
Guitar One                    1.                  2.
|----------------------------|------------------|----------------|
|----------------------------|------------------|----------------|
|*-8-------8--8-(8)----------|--6------------6-*|--5----------5-*|
|*-6--6-6--6--6--7--7-6h7p6--|--4--4-4---4---4-*|--3--3-3--3--3-*|
|--6--6-6--6-----------------|--4--4-4---5---4--|--3--3-3--4--3--|
|----------------------------|------------------|----------------|

[ Tab from: http://www.guitartabs.cc/tabs/m/mortification/grind_planetarium_tab.html ]
Riff E
Guitar Two                       (play with same rhythm)
|-----------------------------------|---1.--|---2.--|
|-----------------------------------|-------|-------|
|*---8---8---8---8---8---8---8---8--|----6-*|----5-*|
|*-6---6---6---6---6---6---6---6----|--4---*|--3---*|
|-----------------------------------|-------|-------|
|-----------------------------------|-------|-------|


Riff E Guitar Three 1st Time
|--4--4-5--5-4h5p4--2--|--0--2-4-5-4-2p0-2p0-2/4--|--4h5p4----|
|----------------------|--------------------------|--------6--|
|----------------------|--------------------------|-----------|
|----------------------|--------------------------|-----------|
|----------------------|--------------------------|-----------|
|----------------------|--------------------------|-----------|

Riff E Guitar Three 2nd Time
|--4---5-4--2--0-2b----|--0--2-4-5-4-2p0-2p0-2/4--|--4h5p4----|
|----------------------|--------------------------|--------6--|
|----------------------|--------------------------|-----------|
|----------------------|--------------------------|-----------|
|----------------------|--------------------------|-----------|
|----------------------|--------------------------|-----------|


|--4----0-2-4--4-5-4-2-4-2--|-----------------------|---------|
|-----4---------------------|-----------------5-----|---------|
|---------------------------|---------4-6-7-6---7-6-|-6t4-----|
|---------------------------|--4--6-7---------------|-----6---|
|---------------------------|-----------------------|---------|
|---------------------------|-----------------------|---------|


Riff  A x12
Riff  B x4
Riff  C x4
Riff  D x3
Riff  B x4
Riff  C x4
Riff  D x3
Riff  E Guitar One x2
      E Guitar Three 1st Time x1
Riff A x8
Riff B x4
Riff C x4
Riff D x3
Riff B x4
Riff D x3
Riff E G1 x2
       G3 2nd Time x1
Riff C x1
Riff E All guitars until end

Grind Planetarium
Pride lacerated from my mind
Grind planetarium
Now destroying all that is blind deceit.

Mortification
Bringing forth flesh denial
Stardom farces
Capture those of false arise

Manipulation of other to bring about success
Abomination
Those of flesh will see you're false

Christian warfare
Kill the stars exalt the cause
Mass exposure is what we want but for our lord

Tabbed by conorlarkin@hotmail.com

Comments