Mortification - Envision Evangelene Chords & Tabs

 

Envision Evangelene Chords & Tabs

Mortification Chords & Tabs

Version: 2 Type: Tab 0 ratings
1 star 2 stars 3 stars 4 stars 5 stars
comments

Envision Evangelene Tab

#----------------------------------PLEASE NOTE--------------------------------#
#This file is the author's own work and represents their interpretation of the#
#song. You may only use this file for private study, scholarship, or research.#
#-----------------------------------------------------------------------------#
Author/Artist: Steve Rowe, Mortification
Title: Envision Evangelene
Album: Envision Evangelene
Transcribed by: Lymphosarcoma
Email: Carelsberg_christiaan@hotmail.com

Play to His glory,

There probably are manny mistakes, please if you can correct one, mail to me, THX

Solo's not included. (Not yet)

Tune in Eb

---|----------------------------------------------------------------------|---
-1-|----------------------------------------------------------------------|---
---|*--------------------------------------------------------------------*|---
---|*-9-9-9--9-9-9--9-9-9--7-7-7----9-9-9--9-9-9--9-9-9--7-7-7-----------*|---
---|--7-7-7--7-7-7--7-7-7--5-5-5----7-7-7--7-7-7--7-7-7--5-5-5------------|---
---|----------------------------------------------------------------------|---
     BASS                                                                     

---|---------------------------|--------------------------------------x4--|---
-1-|---------------------------|------------------------------------------|---
---|---------------------------|*----------------------------------------*|---
---|--9--------------------7---|*---9-9-9--9-9-9--9-9-9--7-7-7-----------*|---
---|--7--------------------5---|----7-7-7--7-7-7--7-7-7--5-5-5------------|---
---|---------------------------|------------------------------------------|---
  Heavenly distorted guitar                                                   

---|---------------------------|---------------------------------------x2-|x4-
-2-|---------------------------|------------------------------------------|---
---|---------------------------|*----------------------------------------*|---
---|--9---------7--9-----------|*----------------------------------------*|---
---|--7---------5--7-----------|---5--3-3-3---7/8/7-----5--3-3-3---7/8/7--|---
---|---------------------------|------------------------------------------|---
                                                                              

-----------------------------------------------------------------------x2-|---
--------------------------------------------------------------------------|---
-*-----------------------------------------------------------------------*|---
-*------9---7---5/4/5-------9---7---5-------9---7---5/4/5--------9-------*|---
--------7---5---3/2/3-------7---5---3-------7---5---3/2/3--------7--12--5-|---
--0-0-0---0---0-------0-0-0---0---0---0-0-0---0---0--------0-0-0----10--3-|---
 p.m. -   -   -       - - -   -   -   - - -   -   -        - - -      /       

---|--------------------------------------------------|1-------|2-------|x2---
-3-|--------------------------------------------------|--------|--------|-----
---|*-------------------------------------------------|-------*|-------*|-----
---|*-------------------------------------------------|-------*|-------*|-----
---|--4-4-4--4-4-4--4-4-4--5-5-5--4-4-4--4-4-4--4-4-4-|-3-3-3--|--3x----|-----
---|--2-2-2--2-2-2--2-2-2--3-3-3--2-2-2--2-2-2--2-2-2-|-1-1-1--|--1x----|-----
 p.m. - - -  - - -  - - -  - - -  - - -  - - -  - - -   - - -     -           

---x2-|------|---|--------------------------------------------------------|x4-
------|------|-4-|--------------------------------------------------------|---
--2---|------|---|*----------------9-----9-----------------10---10-------*|---
------|----9-|---|*--9---------9-------------10-------10-----------10----*|---
------|----7-|---|---7-------7---7-----7-----8------8----8----8-------8/7-|---
------|------|---|--------------------------------------------------------|---
 riff         riff   bass x4 guitar x2                                        

---|-------------------------|------------------------------------------------
-4-|-------------------------|------------------------------------------------
---|-------------------------|*----9---9---9---9---9---9---9------------------
---|--10---9----10---9---10--|*-----------------------------------------------
---|--8----7----8----7---8---|---7---7---7---7---7---7---7---7/8--------------
---|-------------------------|------------------------------------------------
          guitar                Guitar/bass                                   

---------------------------------------------|--------------------------|-----
---------------------------------------------|--------------------------|-----
-----10---10---10---10---10---10---10-------*|*------9---9---9---9-----*|-----
--------------------------------------------*|*------------------------*|-----
---8----8----8----8----8----8----8----8/7----|-----7---7---7---7--------|-----
---------------------------------------------|--------------------------|-----
                                                                              

---|------------------------------------------------------------------|-------
---|------------------------------------------------------------------|-------
---|------------------------------------------------------------------|-------
---|--9/8-------------------------8/7-------------------------9/8-----|-------
---|--7/6-------------------------6/5-------------------------7/6-----|-------
---|------------------------------------------------------------------|-------
                                                                              

---|--------------------------------------------------------------------------
-5-|--------------------------------------------------------------------------
---|*-------------------------------------------------------------------------
---|*-------------------------------------------------------------------------
---|--77777777----555555--77777---101010-88888-7777---333333--555-333-22-33---
---|--------------------------------------------------------------------------
    Grinding metal    we see the pain and glory.........                      

------------------------------------------------------------------------|-----
------------------------------------------------------------------------|-----
-----------------------------------------------------------------------*|-----
-----12-12-12-12---10-10-10-10---9--9--9--9----7--7--7--7--------------*|-----
-----10-10-10-10---8--8--8--8----7--7--7--7----5--5--5--5---------------|-----
------------------------------------------------------------------------|-----
                                                                              
---|--------------------------------------------------------------------|-----
---|--------------------------------------------------------------------|-----
-6-|*------------------------------------------------------------------*|-----
---|*--9----9-9-9-9-----9-9-9-9-----7----7-7-7--7-7-7--7-7-7--7-7-7----*|-----
---|---7----7-7-7-7-----7-7-7-7-----5----5-5-5--5-5-5--5-5-5--5-5-5-----|-----
---|--------------------------------------------------------------------|-----
 p.m.       - - -       - - -            - - -  - - -  - - -  - - -           

---|--------------------------------------------------------------------|-----
-6-|--------------------------------------------------------------------|-----
---|*------------------------------------------------------------------*|-----
---|*-----------9999999999999-------------------7777777777777777-------*|-----
---|-7777777777-----------------555555555555555-------------------------|-----
---|--------------------------------------------------------------------|-----

                                                                              
---|----------------|---------|----------|--------|---------------------------
---|----------------|---------|----------|--------|---------------------------
---|--9-------------|---------|----------|--------|---------------------------
---|--9-------------|---------|----------|--------|---------------------------
---|--7-------------|---------|----------|--------|---------------------------
---|----------------|---------|----------|--------|---------------------------
                      riff 4     riff 5    riff 6                             


---|--------------------------------------------------------------------|-----
-7-|--------------------------------------------------------------------|-----
---|--------------------------------------------------------------------|-----
---|-----9-----------9-----7x-----------9--------------9----7x----------|-----
---|-----7-----------7-----5x-----------7--------------7----5x----------|-----
---|--0-----------0------0-----------0-------------0------0-------------|-----
 p.m. -           -      -           -             -      -                   


---|--------------------------------------------------------------------------
-8-|--------------------------------------------------------------------------
---|--------------------------------------------------------------------------
---|-----9----------9-------5--4/7------9--------------7----5---4-7-----------
---|-----7----------5-------3--2/5------7--------------5----3---2-5-----------
---|--0----------0------0------------0-------------0------0-------------------
 p.m. -          -      -            -             -      -                   


------------------------------------|-----------------------------------------
------------------------------------|-----------------------------------------
------------------------------------|-----------------------------------------
---------9----------9-------5--4/7--|-----------------------------------------
---------7----------5-------3--2/5--|-----------------------------------------
------0----------0------0-----------|-----------------------------------------
 p.m. -          -      -                                                     

[ Tab from: http://www.guitartabs.cc/tabs/m/mortification/envision_evangelene_tab_ver_2.html ]
---|---------------------------------------------------------------------x4|--
---|-----------------------------------------------------------------------|--
-9-|-----------------------------------------------------------------------|--
---|-----------------------------9/10/9p7---------------------11/12/11p9---|--
---|------7-7-7-7-7----9/10/9p7------------------11/12/11p9----------------|--
---|------0----------------------------------------------------------------|--
 p.m.     - - - - -                                                           


-|----------|----------|---------------------------------------------------|--
-|----------|----------|---------------------------------------------------|--
-|----------|----------|---------------------------------------------------|--
-|----------|----------|---9-----------------------------------------------|--
-|----------|----------|---7-----------------------------------------------|--
-|----------|----------|---------------------------------------------------|--
   riff 8+9   riff 8+9    shurly not                                          

----|-------------------------------------------------------------------x4-|--
----|----------------------------------------------------------------------|--
-10-|*---10----10----10-----10------9----9----9----9----------------------*|--
----|*--------------------------------------------------------------------*|--
----|--8-----8-----8------8-------7----7----7----7-------------------------|--
----|----------------------------------------------------------------------|--
  bass:    fear and terror fill our skies                                     

----|-------------------------------------------------------------------------
----|-------------------------------------------------------------------------
----|-------------------------------------------------------------------------
-11-|*----12----12----12----12----------15----15----15----15------------------
----|*------------------------------------------------------------------------
----|--10----10----10----10----------13----13----13----13---------------------
----|-------------------------------------------------------------------------
     we will it with force, the holy spirith is beneath us                    

-----------------------------------------------------------------------x2|----
-------------------------------------------------------------------------|----
----------14----14----14----14-----------17----17----17----17------------|----
-------------------------------------------------------------------------|----
-------12----12----12----12-----------15----15----15----15---------------|----
-------------------------------------------------------------------------|----
                                                                              

----|-------------------------------------------------------------------------
-12-|-------------------------------------------------------------------------
----|---------77777777--------------------777777777777------------------------
----|-------------------------------------------------------------------------
----|-5555555------------555555555555-----------------------------------------
----|-------------------------------------------------------------------------
 bass                                                                         

----|---------------------------------------------------------------------|---
-12-|---------------------------------------------------------------------|---
----|---------------------------------------------------------------------|---
----|---------------------------------------------------------------------|---
----|-55555555555555555555555555555555555555555555555555555555555555555---|---
----|---------------------------------------------------------------------|---
 bass                                                                         

----|---------------------------------------------------------------------|---
-12-|---------------------------------------------------------------------|---
----|---------------------------------------------------------------------|---
----|--------------------------------777777777777777777777777777777777----|---
----|--------------------------------555555555555555555555555555555555----|---
----|---------------------------------------------------------------------|---
 guitar                                                                       

----|---------------------------------------------------------------------|---
-13-|---------------------------------------------------------------------|---
----|*-------------------------------------------------------------------*|---
----|*---------9-----------------9--7-----------9-----------9--7--5------*|---
----|----------7-----------------7--5-----------7-----------7--5--3-------|---
----|---0-0-0-------------0-0-0----------0-0-0-------0-0-0----------------|---
 p.m.   - - -             - - -                                               

-|----------|----|----------------------x3|-----------------------------------
-|----------|----|------------------------|-----------------------------------
-|----------|-14-|*----------------------*|-----------------------------------
-|----------|----|*----------------------*|-----------------2---3-------------
-|----------|----|------------------------|-----------------2---3-------------
-|----------|----|--1-0--5-4----0-1-3-2---|---1-0--5-4------0---1-------------
   riff 3 x2                              p.m.              -   -             
----|--------------------------------------------------------------------x3|--
----|---------------------------------------------------x3-----------------|--
-15-|*-------------------|*-----------------*|-|*-------*|----------------*|--
----|*-------------------|*-----------------*|-|*-------*|----------------*|--
----|----------------------------------------------------------------------|--
----|----555-555-555-555---4/555-555-555-555-----8/9/8-6----44444444444444-|--
                                                                              
----|--------------------x3-|------------|---------|---------------|----------
----|-----------------------|------------|---------|---------------|----------
----|*---12-----10-----8---*|------------|---------|---------------|----------
----|*---12-----10-----8---*|------------|---------|---------------|----------
----|----10-----8------6----|------------|---------|---------------|----------
----|-----------------------|------------|---------|---------------|----------
                               riff 4-9     riff 3   riff 14+15               

WORDS

EnVision EvAngelene
Part 1 - Musical Prelude - Emaculate Conception
Part 2 - Musical Prelude 2 - The Imminent Messiah

Part 3 - Persecuted Quest 

(Luke 1 and 2)
We see the pain and glory of the Son of man  Virgin birth brought him
for mankind. Heal the sick and drive demons from the possessed
Awesome to see, finally your plan

For mankind, your glory is revealed, Though some heed him, many cause
him pain

The lost shall be found, in weakness they are strong
Those who long for life, flock to his side where love is nigh

Part 4 - The words at the supper 

(Luke 22:14-23)
Now what's this sudden word What's he mean God when he speaks of death
Surely you would not subject him to that of which he speaks
We cannot see what's the plan of this
He's shown your awesome glory to the world of man They don't even heed it

You see the wretched sin, why send your son to die
If these words he speaks are true? You are not answering us God
Please reveal to us your mind Did you really send him to suffer and to die?

Take the wine and take the bread, he says Do this in my rememberance
What is he saying? We won't let him die
We'll be there at his call, demons will not take him

One of you will betray me and one of you deny we've heard him speak this way
Angelic presence, we must rise and attack demons against the Son of man

Surely he will not resign
Surely he will not resign
Surely not!!!

Part 5 - Angelic Sufferance 

(Luke 23:26-49, Luke 15, Luke 53:7, Mark 15:34)
Fear and terror fill our skies Demons gather against us
In formation we rise The power of God is with us
We wield it with force The Holy Spirit is beneath us
but wait, what's this?

They whip him, they scourge him with hatred in their eyes
They beat him, they mock him  tearing at his face
They've hung him, they punch him, blood gushes from his mouth

Why doesn't he cry out, we are ready and waiting 
to cut those people down driven by demons  Satan is prevailing, God He is
not calling  God He is not calling, God He is not calling!!!

Frantically we return and gush through heaven's gate
Gabriel hysterical, order in your ranks We turn to the Father, His face not
moved  We cry out WHY! We can hardly believe Lord, please commission us,
commission us Commission us, please, God!!!

We see the nails burst the holy flesh with holy godly hatred we seethe
against satan  The Son of man hangs, the blackness folds around
The Father cries and turns NO!!! we cry out
What is this, save him we plead Save Him, Save Him, Save Him!!!

Sudden silence, God hangs his head In crushing pain we fall

Part 6 - Angelic Resurgence 

(Mark 16:1-8, Revelation 1:12-18)
Myriads rise expectant
We look down with hope filled eyes
We cannot believe the sight
Alright! Alright!!!

Jesus has risen, He's come back to life
He's taken the keys to death and hell
Now we can see, sorry for the doubt
The death of Christ to save the souls of man
Oh God, what a plan!
Every knee shall bow, man will not doubt
after seeing His victory
Alright! Lookout!

Here comes the Christ
In clouds of grace we embrace
Total exhilaration on angelic faces
The Son of man has returned in victory over death
Yes!!! (Lead solo)


Part 7 - Frustrated Vision 

(1 Peter 4:12-16)
Lust and fear and hate and pain reign across the land
God, let us kill the ways, annihilate the plan
Wars, death, famine, aids, man accepts the pain
Only your saints prevail, renew, revive their light

Part 8 - Please Tarry 
(1 Peter 5:8-9, 2 Cor. 10:3-6, Rev. 20:11-15)
The church is on the rise
God, the ones who know the light
We stand by their side, in affliction we fight
The demons work all night
They know the time is short, warfare in sight
But many more will come
We know the time is near, when Jesus you return
God we question You no more
But please tarry, more are coming
and your saints are faithful

The day is nigh!!!
Comments