Morten Abel - Out Of Flames Chords & Tabs

 

Out Of Flames Chords & Tabs

Morten Abel Chords & Tabs

Version: 1 Type: Tab 0 ratings
1 star 2 stars 3 stars 4 stars 5 stars
comments

Out Of Flames Tab

Out Of Flames (6:19)
[ Tab from: http://www.guitartabs.cc/tabs/m/morten_abel/out_of_flames_tab.html ]
Intro
 
00:00
||----------------|-------------|-------------|-------------|
||-----9-10-12-10-|-9---9-------|-------------|-------------|
||----------------|---9---------|--9p8--6-8-4-|-------------|
||----------------|-------------|-------------|-------------|
||----------------|-------------|-------------|-------------|
||----------------|-------------|-------------|-------------|
 
00:05
||----------------|-------------|-------------|-------------|
||-----9-10-12-10-|-9---9-------|-------------|-9-10-9------|
||----------------|---9--9-------9-8-9-11-(11)|-------9p8-6-|
||----------------|-------------|-------------|-------------|
||----------------|-------------|-------------|-------------|
||----------------|-------------|-------------|-------------|
 
00:13
|--12-11-------|-------------|----------------|-------------|
|-------------(9p10p9------12-10-9-------------|------------|
|-------13p9---|-----11-9)---|------8---8\9-6-|---8-9-11----|
|--------------|-------------|----------------|-------------|
|--------------|-------------|----------------|-------------|
|--------------|-------------|----------------|-------------|
 
00:22
|--------------|-------------|----------------|-------------|
|-9-10/9-------|-------------|----------------|-------------|
|-------11--9/11-13/11-9—8p9p8---4--6~---4/6/4--2-4-----1---|
|--------------|-------------|----------------|------4------|
|--------------|-------------|----------------|-------------|
|--------------|-------------|----------------|-------------|
 
00:28
|--------------|-------------|----------------|-------------|
|------------------------------9-9-9/11-11 11-11/9----------|
|-9p8—8p6--6---1---2---??----|----------------|-------------|
|----------------------------|----------------|-------------|
|--------------|-------------|----------------|-------------|
|--------------|-------------|----------------|-------------|
 
- intro end 00:32



Chords transcribed by Finn Erik Sannes 
Note from Finn Erik Sannes: I think the song goes in E and A. 
Any questions, e-mail: mongiss@hotmail.com

Back to Coma Track List 


Go to sleep, dream about me 
Giving you the luxury 
Giving you shelter and safety 
Go to sleep, dream about me

Giving you confidence 
Rushing your adolescence 
Protecting your innocence 
You're getting my influence 
Equalising the difference 
I'm your experience 
Go to sleep, dream about me 
You're getting undressed 
Kissing your breasts 
I'm doing it best 
I'm the end to your loneliness

Give it to me don't be shy 
I will be your total guidance tonight 
You can ask the questions you like 
Talk to me I am wisdom 
And everybody knows where I come from... 
Out of flames 
Everybody knows my name!

How can you deny my existence 
How can you ignore me 
When I am who I wanna be 
I ain't hanging on no cross 
No, I ain't hanging on no cross 
But I will die, I will die for us 
I'm not going to tear you apart 
I'm a man with a lonely heart

Give it to me don't be shy 
I will be your total guidance tonight 
You can ask the questions you like 
Talk to me I am wisdom 
And everybody knows where I come from 
Yeah, out of flames 
Everybody knows my name

Out of Flames 
Give it to me now 
Give it to me now 
Everybody knows my name

Comments