Morse Steve Band - Stressfest Chords & Tabs

 

Stressfest Chords & Tabs

Morse Steve Band Chords & Tabs

Version: 1 Type: Tab 0 ratings
1 star 2 stars 3 stars 4 stars 5 stars
comments

Stressfest Tab

#----------------------------------PLEASE NOTE--------------------------------#
#This file is the author's own work and represents their interpretation of the#
#song. You may only use this file for private study, scholarship, or research.#
#-----------------------------------------------------------------------------#

Date: Fri, 24 Apr 1998 23:57:30 -0300
Subject: m/morse_steve/stressfest.tab
From: godsize1@cobweb.com.au

http://members.tripod.com/~godsize1/morse.htm

STRESSFEST - Steve Morse Band

p.m and a.h not notated. You know where they go.



E|-----------------------------|-----------------------------|------------------
B|-----------------------------|-----------------------------|------------------
G|-11/13---------13/14---------|-----14-----13-----9---------|-11/13---------13/
D|--9/11---------11/12---------|-----12-----11-----7---------|--9/11---------11/
A|-------0-0-0-0-------0-0-0-0-|-0-0----0-0----0-0---0-0-0-0-|-------0-0-0-0----
E|-----------------------------|-----------------------------|------------------





E|------------|-------------------------------------|----------|----------|-----
B|------------|-------------------------------------|----------|----------|-----
G|-14---------|-------------16-----13-----9---------|-4--------|------2-2-|-2h4-
D|-12---------|-------------14-----11-----7---------|-4--------|------2-2-|-2h4-
A|----0-0-0-0-|---------0-0----0-0----0-0---0-0-0-0-|-2--------|------2-2-|-2---
E|------------|-------------------------------------|----------|----------|-----





E|------|--------------------------------------|-----------------------------|-
B|------|--------------------------------------|-----------------------------|-
G|------|----------11/13---------13/14---------|-----14-----13-----9---------|-
D|------|-----------9/11---------11/12---------|-----12-----11-----7---------|-
A|------|----------------0-0-0-0-------0-0-0-0-|-0-0----0-0----0-0---0-0-0-0-|-
E|------|--------------------------------------|-----------------------------|-





E|-----------------------------|-------------------------------------|---------
B|-----------------------------|-------------------------------------|---------
G|-11/13---------13/14---------|-------------16-----13-----9---------|-6-------
D|--9/11---------11/12---------|-------------14-----11-----7---------|-4-------
A|-------0-0-0-0-------0-0-0-0-|---------0-0----0-0----0-0---0-0-0-0-|-4-------
E|-----------------------------|-------------------------------------|-2-------





E|--|---------|------------|----------------15-17-19-17-15-------19-15-17-15----
B|--|---------|------------|---------18b20-----------------17-15-------------17-
G|--|-----4-4-|-4h6--------|----------------------------------------------------
D|--|-----4-4-|-4----------|----------------------------------------------------
A|--|-----4-4-|-4----------|----------------------------------------------------
E|--|-----2-2-|-2----------|----------------------------------------------------





E|----|---------15-17-19-17-15-------19-15-17-|----------15-17-19-17-15-------19-
B|-15-|-18b20------------------17-15----------|-18b20-------------------17-15----
G|----|---------------------------------------|----------------------------------
D|----|---------------------------------------|----------------------------------
A|----|---------------------------------------|----------------------------------
E|----|---------------------------------------|----------------------------------





E|-15-17-15-------|-20-15-------19-15-------17-13-------15--||-------------------
B|----------17-15-|-------17-15-------17-15-------15-13----*||-------15-15----15-
G|----------------|-----------------------------------------||-14-16-------16----
D|----------------|-----------------------------------------||-------------------
A|----------------|----------------------------------------*||-------------------
E|----------------|-----------------------------------------||-------------------





E|-------------------------------|-------------------------------------------17-
B|-15----15-15-19-15-17-15-15----|-------15-15----15-15----15-15-19-15-17-15----
G|----16----------------------16-|-14-16-------16-------16----------------------
D|-------------------------------|----------------------------------------------
A|-------------------------------|----------------------------------------------
E|-------------------------------|----------------------------------------------





E|---|-------------------------------------------------|-------------------------
B|-0-|-------15-15----15-15----15-15-19-15-17-15-15----|-------15-15-15----------
G|---|-14-16-------16-------16----------------------16-|-14-16----------16-14-14-
D|---|-------------------------------------------------|-------------------------
A|---|-------------------------------------------------|-------------------------
E|---|-------------------------------------------------|-------------------------





E|-------------------|----------------------------------------------------------
B|-------------------|----------------------15-15----15-15----15-15-19-15-17-15-
G|-------------------|----------------14-16-------16-------16-------------------
D|-16-14-------------|----------------------------------------------------------
A|-------17-14-17----|----------------------------------------------------------
E|-------------------|----------------------------------------------------------





E|-------|-------------------------------------------17---|----------------------
B|-15----|-------15-15----15-15----15-15-19-15-17-15----0-|-------15-15----15-15-
G|----16-|-14-16-------16-------16------------------------|-14-16-------16-------
D|-------|------------------------------------------------|----------------------
A|-------|------------------------------------------------|----------------------
E|-------|------------------------------------------------|----------------------





E|----------------------------|----------------------------------------||------
B|----15-15-19-15-17-15-15----|-------15-15-15-------------------------||--/8--
G|-16----------------------16-|-14-16----------16-14-------------------||---0--
D|----------------------------|----------------------17-16-14----------||------
A|----------------------------|-------------------------------17-16-14-||------
E|----------------------------|----------------------------------------||------





E|---------15-15--|--------------------------------------------|---------------
B|-8-10/12-15-15--|-------12-13-15----13-12--------------------|-------/8---8--
G|-0--------------|-12-14-------------------14-12----14-----12-|--------0---0--
D|----------------|-------------------------------15-----15----|---------------
A|----------------|--------------------------------------------|---------------
E|----------------|--------------------------------------------|---------------





E|-------15-15----|-13-8------12-8------10-7-----8-5----|-----------------------
B|-10/12-15-15----|------10-8------10-8------8-6-----6--|------------------8--8-
G|-------------12-|-------------------------------------|------------------0--0-
D|----------------|-------------------------------------|-----------------------
A|----------------|-------------------------------------|-----------------------
E|----------------|-------------------------------------|-----------------------





E|-------15-15--|-----------------------------------------|----------------15-15-
B|-10/12-15-15--|-------12-13-15-13-12--------------------|--/8---8--10/12-15-15-
G|--------------|-12-14----------------14-12----14-----12-|---0---0--------------
D|--------------|----------------------------15-----15----|----------------------
A|--------------|-----------------------------------------|----------------------
E|--------------|-----------------------------------------|----------------------





E|----|-13-8------12-8------10-7-8-7-----|-22-17-------21b22---21-17-------19b21-
B|----|------10-8------10-8----------8\--|-------19-17---------------19-17-------
G|-12-|----------------------------------|---------------------------------------
D|----|----------------------------------|---------------------------------------
A|----|----------------------------------|---------------------------------------
E|----|----------------------------------|---------------------------------------





E|--|-19-17-16----------16-17-19-17-17-|-----------------------------------------
B|--|----------19-17-19----------------|-19-17-15----15-17-19-15-17--15----------
G|--|----------------------------------|----------18--------------------18-16-14-
D|--|----------------------------------|-----------------------------------------
A|--|----------------------------------|-----------------------------------------
E|--|----------------------------------|-----------------------------------------




[ Tab from: http://www.guitartabs.cc/tabs/m/morse_steve_band/stressfest_tab.html ]
E-|------------------------------|-14-10-------12b14---17-12-------16b17--|---16-
B-|------------------------------|-------12-10---------------14-12--------|------
G-|---18-16-14-------------------|----------------------------------------|------
D-|------------18-16-14-18----16\|----------------------------------------|------
A-|------------------------16----|----------------------------------------|------
E-|------------------------------|----------------------------------------|------





E|-14-12-------------------|-----------------------------------------------|----
B|-------15-14-12----------|-----------------------------------------------|----
G|----------------14-13-11-|-------------11-9-7----7-9-11----9----7--------|----
D|-------------------------|--------------------11--------12--------11-9-7-|-11-
A|-------------------------|-----------------------------------------------|----
E|-------------------------|-----------------------------------------------|----





E|---------------------|--------------------------|----------|----------|-------
B|---------------------|--------------------------|----------|----------|-------
G|---------------------|--------------------------|----------|----------|-------
D|-7-9---7-------------|--------------------------|----------|--------2-|-------
A|---------11-7-9\-----|-----------------2~-4~--5-|--------2-|-4~-5~----|-------
E|---------------------|--------------------------|-3~-5~----|----------|-4~--5-





E|----------|----------|----------|------------------|--------------|----------
B|----------|----------|----------|------------------|--------------|----------
G|----------|----------|----------|------------------|--------------|----------
D|----------|----------|----------|------------------|--------------|----------
A|-2-4b5-4--|-2~-4~--5-|--------2-|-----4~--5~---7---|--------------|-6~--7~---
E|----------|----------|-3~--5~---|------------------|-4~---5~----7-|----------





E|----|-------------|--------------------|-------------|--------------|--------
B|----|-------------|--------------------|-------------|--------------|--------
G|----|-------------|--------------------|-------------|--------------|--------
D|----|-------------|--------------------|-------------|--------------|--------
A|-9\-|-3~--5~----7-|-------9~--10~---12\|-4~--5~---7/-|-10~--11~--13\|-7~--9~-
E|----|-------------|--------------------|-------------|--------------|--------



                       rhythm under previous figure

E|-----||------------------------------|-----------------|-----------------|---
B|-----||------------------3-----------|-----------------|-----5-----------|---
G|-----||------------------------6---4-|-----4-----------|-----------7---6-|---
D|-----||----------------4-----7-------|-----------7---5-|---7-----7-------|---
A|--11-||--------------2-----4-----5---|---5-----7-------|-4-----5-----7---|---
E|-----||------------------------------|-3-----5-----7---|-----------------|-4-





E|---------------|-----------------------------|-----------------|---------------
B|---------------|-----------------7-----------|-----5-----------|------10-------
G|---4-----------|-----------------------9---8-|-----------7---5-|---------------
D|---------7---6-|---------------9-----9-------|---5-----7-------|---12-------12-
A|-7-----7-------|-------------6-----7-----9---|-3-----5-----7---|-9-------10----
E|-----5-----7---|-----------------------------|-----------------|---------------





E|----------|-----------------|-------------------------------------|------------
B|----------|-----5-----------|-------------------11----------------|-----9------
G|-12----11-|-----------7---6-|----------------------------13----12-|------------
D|----------|---7-----7-------|----------------13-------13----------|---9-----12-
A|----12----|-4-----5-----7---|-------------10-------11-------13----|-7-----9----
E|----------|-----------------|-------------------------------------|------------





E|----------||-------------------------|--------------------------|------------
B|-10----12-||-------------------------|--------------------------|------------
G|----------||-------------------------|--------------------------|------------
D|----------||-------------------------|--------------------------|------------
A|----11----||-------------2-----------|----------2-4-5-4-2-------|--2---2-4-5-
E|----------||-0---0-2-3-5---5-3-2-0-2-|-3----3-5-----------5-3-5-|------------



              1st time                       2nd time

E|---------------|---------------------------||-------------------------|------
B|---------------|--------------------------*||-------------------------|------
G|---------------|---------2-----------------||---------2-------2-4-6-2-|------
D|-2-4-2---------|---2-4-5-------------------||---2-4-5-----4-5---------|------
A|-------5-4-2-4-|-5--------------2-4-5-2---*||-5-----------------------|------
E|---------------|--------------5---------5--||-------------------------|------





E|-------------------------|--------------------------|-------------------------
B|-------------------------|--------------------------|-------------------------
G|-4-----------------------|--------------2-----------|-------------------------
D|-----------2-4-2---------|--------2-4-6---6-4-2---2-|-------------------------
A|-----2-4-5-------5-4-2-4-|-5----5---------------5---|-------------2-----------
E|-------------------------|--------------------------|-0---0-2-3-5---5-3-2-0-2-





E-|---------------------------|------------------------|------------------------
B-|---------------------------|------------------------|------------------------
G-|---------------------------|------------------------|---------2--------------
D-|---------------------------|----------2-4-2---------|---2-4-5----------------
A-|-----------2-4-5-4-2-------|-2--2-4-5-------5-4-2-4-|-5--------------2-4-5-2-
E-|-3-----3-5-----------5-3-5-|------------------------|--------------5---------



          It's solo time!

E|---||-------------------|-3---------------------|--------------|-------------
B|---||----------6b8------|---6p3---------------3-|-6-5b6-----3--|-------------
G|---||-------------------|-------6-5-4-3-4-5-6---|-----------3--|-------------
D|---||-------------------|-----------------------|--------------|--5~---------
A|---||-------------------|-----------------------|--------------|-------------
E|-5-||----------3--------|-----------------------|--------------|-------------





E-|----------------------------------------|--------------------------|------10-
B-|----------------------------------------|-------6-----------11b13--|---------
G-|------------------------0---4-5-6-7-----|-5-7-9--------7-9---------|---------
D-|------------------0-1-2---7---------7-9-|---------9-10-------------|---------
A-|------------0-1-2-----------------------|--------------------------|---------
E-|----------------------------------------|--------------------------|---------





E|--------|-------------|----------------------------------10h12-13-14-|-15p14-
B|-11b12--|-8~----------|----------------------10h12-13-14-------------|-------
G|--------|-------------|-----------9h11-12-13-------------------------|-------
D|--------|-------------|-----11-12------------------------------------|-------
A|--------|-------------|----------------------------------------------|-------
E|--------|-------------|----------------------------------------------|-------





E|-13p12-------------------------------------|-------------17------------------
B|-------16-15-14p13-14-15-16-17-16-15-14----|---------------------------------
G|----------------------------------------17-|-16-14-------16b17--r-b1-r-------
D|-------------------------------------------|-------16-14---------------14-16-
A|-------------------------------------------|---------------------------------
E|-------------------------------------------|---------------------------------





E-|-------------------|-------------------------------------------|-----------------
B-|-------------------|-------------------------------------------|-----------------
G-|-----14~-----------|---17b21--r14-------17b21--r14-------17b21-|-r14-------17b21-
D-|----------16\------|--------------16-14------------16-14-------|-----16-14-------
A-|-------------------|-0-----------------------------------------|-----------------
E-|---------------3-0-|-------------------------------------------|-----------------





E|------------------------------|---------------------------------------------17-
B|------------------------------|---------------------------------14-17-18-19----
G|--r14-------17-16-15-14-------|------------------------14-16-17----------------
D|------16-14-------------17-16-|------------15-14-15-16-------------------------
A|------------------------------|------------------------------------------------
E|------------------------------|------------------------------------------------





E|-19-20-21-20-|-19-17---------------------|-
B|-------------|-------20b22---------------|-
G|-------------|---------------------------|-
D|-------------|---------------------------|-
A|-------------|---------------------------|-
E|-------------|---------------------------|-
Comments