Morse Steve Band - Rally Cry Chords & Tabs

 

Rally Cry Chords & Tabs

Morse Steve Band Chords & Tabs

Version: 1 Type: Tab 0 ratings
1 star 2 stars 3 stars 4 stars 5 stars
comments

Rally Cry Tab

#----------------------------------PLEASE NOTE--------------------------------#
#This file is the author's own work and represents their interpretation of the#
#song. You may only use this file for private study, scholarship, or research.#
#-----------------------------------------------------------------------------#

Date: Fri, 24 Apr 1998 23:56:46 -0300
Subject: m/morse_steve/rally_cry.tab
From: godsize1@cobweb.com.au

http://members.tripod.com/~godsize1/morse.htm


RALLY CRY - Steve Morse Band

As Usual A.H and P.M not notated. You know where they go.



E|-0-7p0---0-----10-0-9-0----0-7h9p7-----|-0-7p0---0-----10-0-9-0----0---------
B|-------5---0-7----------10---------9---|-------5---0-7----------10---10/12~--
G|-------------------------------------9-|------------------------------7/-9~--
D|---------------------------------------|-------------------------------------
A|---------------------------------------|-------------------------------------
E|---------------------------------------|-------------------------------------





E-|--------------0-7p0---0-----10-0-9-0----0-7h9p7-----|-2h4p2-----------------
B-|--------------------5---0-7----------10---------9---|-------5-0-3-0-5/7-5~--
G-|--------------------------------------------------9-|-----------------------
D-|----------------------------------------------------|-----------------------
A-|----------------------------------------------------|-----------------------
E-|----------------------------------------------------|-----------------------





E|----------|-----------0-7p0---0-----10-9-7-0---5-7h9p7-----|-0-7p0---0-----10-
B|---17\----|-----------------5---0-7----------7---------9---|-------5---0-7----
G|----------|----------------------------------------------9-|------------------
D|----------|------------------------------------------------|------------------
A|----------|------------------------------------------------|------------------
E|----------|------------------------------------------------|------------------





E|-9-7-0---5-7-----|-0-7p0---0-----10-9-7-0---5-7h9p7-----|-0-7p0---0-----10-9-
B|-------7-----5---|-------5---0-7----------7---------9---|-------5---0-7------
G|-----------------|------------------------------------9-|--------------------
D|-----------------|--------------------------------------|--------------------
A|---------------7-|--------------------------------------|--------------------
E|-----------------|--------------------------------------|--------------------





E|-7-0---5-7-----|-7h9p7----0------12---10-9----0----------------|-7h9p7----0---
B|-----7-----5---|-------10---8-10-----------12---10h12p10-------|-------10---8-
G|---------------|--------------------9--------------------11----|--------------
D|---------------|--------------------------------------------12-|--------------
A|-------------7-|-----------------------------------------------|--------------
E|---------------|-----------------------------------------------|--------------





E|----12---10-9----0---------|------10-14p10----------0-------------------------
B|-10-----------12---10~--12-|---------------12----10---14-------12-------10----
G|-------9-------------------|------------------12---------14----------12----12-
D|---------------------------|--------------------------------12----14----------
A|---------------------------|--------------------------------------------------
E|---------------------------|--------------------------------------------------





E|-------|-----------------------||----------------------------|----------------
B|-------|-----------------------||----------------------------|----------------
G|-11----|----9----------9-------||----------------------------|----------------
D|----12-|---------11-12---------||--------2---4---2-----------|----------2-0---
A|-------|-10---12---------10-12-||-5-4b5----5---5---5-4-2-----|--------------3~
E|-------|-----------------------||------------------------3-2-|--------0-------





E|-------3------|------------------------------|-------------------5-5-|-------
B|-------3--3~--|------------------------------|-----3-----3-------5-5-|-------
G|-------0--2~--|------------------------------|-----------------2---2-|-------
D|-------0--0~--|-1/2-1/2--5-4-2-----4-2-------|---5-----5---4---2---2-|-------
A|---2-0--------|---0---0----------5-------5-4-|-3-----2-------0-0---0-|-------
E|-------3--2~--|----------------3-------5-----|-----------------------|-------





E|---------------------------|------------------------------|-------------------
B|-7-----7~--7-8-9-10--10b12-|-10-8-7-----7-----------------|-------------10-12-
G|---7-9---------------------|--------9~----9-7-------------|-----------9-------
D|---------------------------|------------------9b10-9-7----|-9/11--11~---------
A|---------------------------|---------------------------10-|-------------------
E|---------------------------|------------------------------|-------------------





E|-9-10-12/14-|----------/15-14b15~--14-12-----------||-----9-----7-------------
B|------------|----------------------------15-15~----||-------------9-----7-----
G|------------|--------------------------------------||---------9---------------
D|------------|--------------------------------------||---9---7---------9-----6-
A|------------|--------------------------------------||-7-----------------------
E|------------|--------------------------------------||---------------7-----9---





E|---------|-------------------|-------------------------|------------|-----9---
B|---------|-------------------|-------------------------|------------|---------
G|-9\8-6---|---4---------------|-------------------------|-------2----|---------
D|---------|-----6-6p4---------|---------4--4~-----------|-4--4--2----|---9---7-
A|---------|-7-----------7-6-4-|---------4--4~-----------|-4--4--0----|-7-------
E|-------5-|-----------7-------|---------2--2~---0-2-4-0-|-2--2-------|---------





E|---7---------------------|-------------------|------5---------|---------------
B|-----9-----7-------------|-------------------|------5-------3-|-2~------------
G|-9---------------9\8-6---|---4---------------|---2--2-------2-|---------------
D|---------9-----6---------|-----6-6p4---------|---2--2-------0-|-4~------------
A|-------------------------|-7-----------7-6-7-|---0--0-----4---|-2~------------
E|-------7-----9---------5-|-----------7-------|----------------|-2~------------





E|------||--0-7p0---0-----10-9-7-0---5-7h9p7-----|-0-7p0---0-----10-9-7-0---5-7-
B|------||--------5---0-7----------7---------9---|-------5---0-7----------7-----
G|----2-||-------------------------------------9-|------------------------------
D|----2-||---------------------------------------|------------------------------
A|----0-||---------------------------------------|------------------------------
E|------||---------------------------------------|------------------------------





E|-----|-0-7p0---0-----10-9-7-0---5-7-----|-7h9p7----0------12---10-9----0-------
B|-5---|-------5---0-7----------7-----5---|-------10---8-10-----------12---10h12p
G|-----|----------------------------------|--------------------9-----------------
D|-----|----------------------------------|--------------------------------------
A|---7-|--------------------------------7-|--------------------------------------
E|-----|----------------------------------|--------------------------------------





E|----------|-7h9p7----0------12---10-9----0---------|-10-14p10----------0-------
B|-10-------|-------10---8-10-----------12---10~--12-|----------12----10---14----
G|----11----|--------------------9-------------------|-------------12---------14-
D|-------12-|----------------------------------------|---------------------------
A|----------|----------------------------------------|---------------------------
E|----------|----------------------------------------|---------------------------





E|------------------------|--------------------------------|---------------------
B|----12-------10---------|--------------------10-------r7-|------------------
G|----------12----12-11-9-|---------------11\--------------|-6b7------4~---------
D|-12----14---------------|--------------------------------|------7-4-----6\-----
A|------------------------|--------------------------------|---------------------
E|------------------------|--------------------------------|---------------------





E|-------------|-------------------------------|-------------------------------
B|-------|-------5------------------7----|-------9-----------------------
G|---------6b8-|-6b8-----6--r-4-----4-6b8---4\-|-------------10-9-7------------
D|-------------|----------------3/4------------|--------------------9------7---
A|-------------|-------------------------------|----------------------11-9---9-
E|-------------|-------------------------------|-------------------------------




[ Tab from: http://www.guitartabs.cc/tabs/m/morse_steve_band/rally_cry_tab.html ]
E-|----------------------------|---------------------------------|--------|-------
B-|----------------------------|---------------7-----------------|--------|-------
G-|-----7b9-----9---7~---------|---------7b9-9-------------------|--------|-18b20-
D-|-9-------------9------9---7-|-7---9-----------9~--------------|--------|-------
A-|---9-----9-7------------9---|---9---9------------9-7----7-9-9-|-7~--7\-|-------
E-|----------------------------|------------------------10-------|--------|-------





E|-----16---------------------------------------|------------------------------
B|--19----------16-----------------16-----------|-------15--12----12-14b15-----
G|--------18--r-16-----------------16----18b20--|--------------13--------------
D|---------------------------18-16----16--------|------------------------------
A|----------------------------------------------|---------------------------12-
E|----------------------------------------------|------------------------------





E-|-------14--14-13-12-------------------------|----------------------------|--
B-|--------------------15----12-15------7------|-----------2---2b3----------|--
G-|-----------------------13-------9b10---10-9-|-8-7-4-2-3---4-------4p3-4~-|--
D-|--------------------------------------------|----------------------------|--
A-|-12-12--------------------------------------|----------------------------|--
E-|--------------------------------------------|----------------------------|--





E|----------------------7--------------|-----7---10-12-12b14-10------------------
B|-------------------------------------|-9----------------------12~--------------
G|--------2--------/11----10-9-7-------|---7-------------------------14-15-16-16-
D|-------------------------------9-7-9-|-------9---------------------------------
A|----------0-0-0----------------------|-----------------------------------------
E|-------------------------------------|-----------------------------------------





E|-------------14-16b17-|-------------12---------------------------------|-----
B|-------14-17----------|----12----------14------------------------------|-----
G|-16-16----------------|----------14-------------12---------14-13-11----|-----
D|----------------------|-14----12-------------14---------11-------------|-----
A|----------------12----|------------------------------------------------|--12-
E|----------------------|-------------------12---------14-------------10-|-----





E|------------------|---------------||-----9-----7---------------------|---9---
B|------------------|---------------||-------------9-----7-------7-----|-------
G|-9----------4-----|---------------||---------9-----------9-------9---|-------
D|---11-----2-------|---------------||---9---7---------9-------7-------|-------
A|------0-4---------|---------------||-7-------------7---------------7-|-9---7-
E|--------------0---|---------------||-----------------------9---------|-------





E|---7---------------------|---9-----7---------------------|---9-----7---------
B|-----9-----7-------7-----|-----------9-----7-------7-----|-----------9-----7-
G|-------------9-------9---|-------9-----------9-------9---|-------9-----------
D|-9-------9-------7-------|-9---7---------9-------7-------|-9---7---------9---
A|-------7---------------7-|-------------7---------------7-|-------------7-----
E|---------------9---------|---------------------9---------|-------------------





E|-------------||----9-----7---------------------|---9-----7-------------------
B|-------7-----||*-----------9-----7-------7-----|-----------9-----7-------7---
G|-9-------9---||--------9-----------9-------9---|-------9-----------9-------9-
D|-----7-------||--9---7---------9-------7-------|-9---7---------9-------9-----
A|-----------7-||*-------------7---------------7-|-------------7-------7-------
E|---9---------||----------------------9---------|-----------------------------





E|---------|-------------9-----7---------------------|---9-----7---------------
B|-----7---|---------------------9-----7-------7-----|-----------9-----7-------
G|---------|-----------------9-----------9-------9---|-------9-----------9-----
D|---7-----|-----------9---7---------9-------7-------|-9---7---------9-------7-
A|-------7-|-----------------------7---------------7-|-------------7-----------
E|-9-------|-------------------------------9---------|---------------------9---





E|-----|---4-----2-------------------|-----4-----2---------------|---0---------
B|-7---|-----------4-----2-------2---|-----------------------2---|-------------
G|-----|-------4-----------4---------|---------4-------4---------|-0-----2-2---
D|-----|-4---2---------4-------2-----|---4---2-------4-----2-----|-------------
A|---2-|-------------2-------0-----2-|-------------2-----0-------|-----3-------
E|-----|-----------------------------|-------------------------3-|-----------3-





E|-------------|---0--------------------------||------------0-------------------
B|---------0---|---------3-------0-----8\7---*||------------------3-------0-----
G|-0-0---2-----|-0-----2---2---0--------------||----------0-----2---2---0-------
D|-------------|---------------------7--------||------------------------------7-
A|-----3-------|-----3-------------5-------7-*||--------------3-------------5---
E|-----------3-|-------------3----------------||--------3-------------3---------





E|-------|---9-----7---------------------|-------------------|-----------------
B|-8\7---|-----------9-----7-------------|-------------------|-------9b10--7---
G|-------|-------9---------------9\8-6---|---4---------------|---------------6-
D|-------|-9---7---------9-----6---------|-----6-6p4---------|-----------------
A|-----7-|-------------------------------|-7-----------7-6-4-|-----------------
E|-------|-------------7-----9---------5-|-----------7-------|-----------------





E|----------------|-----------------------------|----------|----------|--------
B|-----7--7~-9b10-|--4b5--4-2-------------------|----------|----------|--------
G|-9-6------------|-----------4b5-4-2-----2b4---|--r-b2-p0-|----------|--------
D|----------------|-------------------4-2-------|----------|----------|--------
A|----------------|-----------------------------|----------|----------|--------
E|----------------|-----------------------------|----------|----------|--------





E|-----------------9-10-11-12-|-12b14---r-9---------------------------|--------
B|-12b14---9-10-12------------|-------------10-9----------------------|--------
G|----------------------------|------------------11-9-----------------|--------
D|----------------------------|-----------------------11-9------------|--------
A|----------------------------|----------------------------11-9----9~-|--------
E|----------------------------|---------------------------------12----|--------





E|--------|------------------------------------14-16-14-----------|-14----------
B|--------|---------------------------14-15-17----------17b19-----|----17-14----
G|--------|---------------13-14-15-16-----------------------------|----------16-
D|--------|------13-14-16-----------------------------------------|-------------
A|--------|-------------------------------------------------------|-------------
E|--------|-------------------------------------------------------|-------------





E|---------------------------------------------|-----------------------21-19b21~
B|-----------------15----14--------------------|--------------------17----------
G|-14-------16b18-----14----14b16--------------|-----------------18-------------
D|----16-14------------------------------------|--------------21----------------
A|---------------------------------------------|-----------19-------------------
E|---------------------------------------------|--------17----------------------





E|---19-17-|----------------------------------21b22--19b21-|-----9-----7-------
B|---------|-21b22--r-21-17-19-17----17-19-17--------------|-------------9-----
G|---------|----------------------20-----------------------|---------9---------
D|---------|-----------------------------------------------|---9---7---------9-
A|---------|-----------------------------------------------|-7-----------------
E|---------|-----------------------------------------------|---------------7---





E|---------------|-----------------------|------11------9----------------------
B|-7-------------|-----------------------|----------------11-------12----------
G|-------9\8-6---|-------4---------------|-----------11---------------------11-
D|-----6---------|---------6-6p4---------|---11----9------------12-------------
A|---------------|-----7-----------7-6-4-|-9-----------------10----------12----
E|---9---------5-|---------------7-------|----------------------------10-------





E|-------|--------|-
B|-------|--------|-
G|-------|--------|-
D|-------|-2------|-
A|-0---4-|--------|-
E|---5---|---0----|-
Comments