Morse Steve Band - Cut To The Chase Chords & Tabs

 

Cut To The Chase Chords & Tabs

Morse Steve Band Chords & Tabs

Version: 1 Type: Tab 0 ratings
1 star 2 stars 3 stars 4 stars 5 stars
comments

Cut To The Chase Tab

#----------------------------------PLEASE NOTE--------------------------------#
#This file is the author's own work and represents their interpretation of the#
#song. You may only use this file for private study, scholarship, or research.#
#-----------------------------------------------------------------------------#

Subject: m/morse_steve_band/cut_to_the_chase.tab
From:godsize1@cobweb.com.au

http://members.tripod.com/~godsize1/morse.htm


CUT TO THE CHASE - Steve Morse Band

A.H and P.M not notated. you know where they go.


E|---------------------|----------------------|--------------------------------
B|-15b17---------13h15-|-13b14----------------|------5-------------------------
G|---------------------|---------14p12-14~----|--\-7---8-7-5---5-7-5b6-----9b11
D|---------------------|----------------------|--------------7---------7p5-----
A|---------------------|----------------------|--------------------------------
E|---------------------|----------------------|--------------------------------





E-|---------------------------------|----------10b11---|-10b12--r--8h10p8------
B-|---------------------------------|------------------|------------------10~--
G-|------------5-7-7b9--5-----------|------------------|-----------------------
D-|-----------------------7~--------|-10--7~-----------|-----------------------
A-|---------------------------------|------------------|-----------------------
E-|---------------------------------|------------------|-----------------------





E|-----|-----------17-------------|-------19b20--r-p17-------------------------
B|-----|-17-19b20-----20b22~------|--------------------20-19-18-17-------------
G|-----|--------------------------|--------------------------------20-19-17----
D|-----|--------------------------|-----------------------------------------19-
A|-----|--------------------------|--------------------------------------------
E|-----|--------------------------|--------------------------------------------





E|------------|-------------------------|---------------------------------------
B|------------|-------------------------|---------------------------13----------
G|------------|-------------------------|------------------12-14----------14----
D|-17---------|-------------------------|------------------------12----12----12-
A|----18-17~--|-------------------------|---------------------------------------
E|------------|---------------------3/--|---------------------------------------





E|-------------|------------------------------------|----------------------------
B|-------------|------------------------------------|----------------13----------
G|-12----14~---|-14p12----14----12b14--r-p10--------|-14p12----14----------14----
D|----12-------|-------12----12--------------12~----|-------12----12----12----12-
A|-------------|------------------------------------|----------------------------
E|-------------|------------------------------------|----------------------------





E|-----------------|--------12-------12-------------------|----------------------
B|-------15b17~----|-----------16-15----16-15-13----------|----------------13----
G|-12--------------|-----------------------------14~------|-14p12----14----------
D|----12-----------|--------------------------------------|-------15----15----15-
A|-----------------|--------------------------------------|----------------------
E|-----------------|--------------------------------------|----------------------





E|--------------------------|-13-----------------------------|------------------
B|-------------------15b16--|----16-15-13--------------------|------------------
G|-14----12----15-----------|-------------16-15-13h14--------|------------------
D|----15----15----15--------|-------------------------15~----|---------10-12-13-
A|--------------------------|--------------------------------|------------------
E|--------------------------|--------------------------------|------------------





E|------------------------------------------------------|----------------------
B|-10-----------------10-----------------10-------13b15-|----------------------
G|------------------------------------------------------|-10-------------------
D|----13-12--10-12-13----13-12--10-12-13----13-12-------|----13-12-10-13-------
A|------------------------------------------------------|----------------8~----
E|------------------------------------------------------|----------------------





E|---------------|-----------------------------------------|---------10b12--r-p
B|---------------|-----------3/5--5------------------------|-3/5---------------
G|---------------|---------------------7b9--r-p5-----------|-------------------
D|---------------|-----------5/7--7--------------7-7~------|-5/7---------------
A|---------------|-----------------------------------------|-------------------
E|---------------|-----------3/5--5------------------------|-3/5---------------





E|-8-------|---------------------|---------------------------------------------
B|---10-10~|---------------/-22\-|-----------------13-------------------13b15--
G|---------|---------------------|--------12-14-------14----12----14-----------
D|---------|---------------------|--------------12-------12----12----12--------
A|---------|---------------------|---------------------------------------------
E|---------|---------------------|---------------------------------------------





E-|-12--------------------------------------------|----------------------------
B-|----13-12--------------------------------------|----------13----------------
G-|----------14--13-12----10h11-------------------|-12-14----------14----12----
D-|--------------------12-------12----------12----|-------12----12----12----12-
A-|--------------------------------12-11-10----9\-|----------------------------
E-|-----------------------------------------------|----------------------------





E|------|------12----------------------------------------------|----------------
B|-15~--|---------15-14-13-12----------------------------------|----------------
G|------|---------------------15-14-13-12----------------------|-14p12----14----
D|------|---------------------------------15-14-13-12----------|-------15----15-
A|------|---------------------------------------------15-12----|----------------
E|------|---------------------------------------------------13\|----------------





E|----------------------------|-13------------------------------|---------------
B|-13-------------------15b16-|----------13---------------------|---------------
G|----14----12----14----------|----16-15----16-15-13h15---------|---------------
D|-------15----15----15-------|-------------------------15------|------10-12-13-
A|----------------------------|----------------------------15~--|---------------
E|----------------------------|---------------------------------|---------------





E|------------------------------------------------------------------|------------
B|-10-----------------10-----------------------------------10-------|-13b15---10-
G|---------------------------------------10-------------------------|------------
D|----13-12--10-12-13----13-12--10-12-13----13-12-10-12-13----13-12-|------------
A|------------------------------------------------------------------|------------
E|------------------------------------------------------------------|------------





E|--------------|---------------------------------------|-----------12b13--13p12-
B|--------------|--------------------12-12b13-13p12-----|----12--15--------------
G|-10~----------|-----------------13-----------------14-|-12~--------------------
D|--------------|-------------/14-----------------------|------------------------
A|--------------|---------------------------------------|------------------------
E|--------------|---------------------------------------|------------------------





E|-----|--------------------10b12--r-p8-------|---------------------------------
B|--15-|-15b17--r-b2--------------------10-10~|---------------------------------
G|-----|--------------------------------------|---------------------------------
D|-----|--------------------------------------|--------------0h5--7-------------
A|-----|--------------------------------------|----------------------5b7--3b----
E|-----|--------------------------------------|-------------------------------5-





E|---|---------------------------||------------------------------------|-------
B|---|---------------------------||------------------------------------|-------
G|---|---------------------------||------------------------------------|-------
D|---|---------------------------||------------------------------------|-------
A|---|---------------------------||-5-3-----3-2-----5-----7b8--r-5-----|-----5-
E|-3-|-5~------------------------||-----5-3-----5-2---8-5----------8-5-|-------





E|---------------------------|----------------------------|---------------------
B|---------------------------|----------------------------|---------------------
G|-----------2---------------|-----------------------7----|-------------------5-
D|-------------6-5-3-----0---|-------------5h6p5-------6--|---------------------
A|-3-----3-2---------5-4-----|-----5-5-8-5-------8-5------|---------------------
E|---5-3-------------------1~|-8-5------------------------|---------------------





E|-------------------------------------|-||----------------------------------|-
B|-------------------------------------|-||*---------------------------------|-
G|-----5-----5-----5-----5-------------|-||----------------------------------|-
D|-6h7---6h7---6h7---6h7---6-5-3-------|-||------------------------1---------|-
A|-------------------------------5-3b--|-||*-----2-----3-------------5-3-----|-
E|-------------------------------------|-||--1-1---1-1---1-1-1-1-1-------4h5-|-





E|------------------------------------------||-----------------------------------
B|-----------------------------------------*||-----------------------------------
G|------------------------------------------||-----------------------------------
D|---------------------------------------3--||-----------------------------------
A|----------------2-----3-----------5b6----*||-7-5-----5-4-----7------9b--r-7----
E|------------1-1---1-1---1-1-1-1-1---------||-----7-5-----7-4---10-7---------10-





E|---|-------------------------------------------|-----------------------------
B|---|-------------------------------------------|-----------------------------
G|---|---------------------------4---------------|---------------------------9-
D|---|-----------------------------8-7-5-----0---|----------------7h8p7--------
A|---|---------------7-5-----5-4---------7-6-----|-------7-7-10-7-------10-7---
E|-7-|-------------------7-5-------------------3~|--10-7-----------------------





E|---|--------------------------------------------------------------------|----
B|---|--------------------------------------------------------------------|----
G|---|-7-----7-----7-----7-----7------------------------------------------|----
D|-8-|---8h9---8h9---8h9---8h9---8-7-5------------------------------------|-14p
A|---|---------------------------------7-5b-7~----------------------------|----
E|---|--------------------------------------------------------------------|----





E|--------------------------------------------------------|---------------------
B|--------------------------------------------------------|---------------------
G|--------------------------------------------------------|---------------------
D|-7h9--14p9p7-16p6h9-16p9p6-14p7h9--14p9p7-16p6h9-16p9p6-|------15p10h12-15p12p
A|--------------------------------------------------------|---------------------
E|--------------------------------------------------------|---------------------





E|----------------------------------------------------------|------------------
B|----------------------------------------------------------|------------------
G|----------------------------------------------------------|-12p5h7-12p7p5-14p
D|-10-17p10h14-17p14p10-15p10h12-15p12p10-17p10h14-17p14p10-|------------------
A|----------------------------------------------------------|------------------
E|----------------------------------------------------------|------------------





E|----------------------------------------|------------------------------------
B|----------------------------------------|------------------------------------
G|-4h7-14p7p4-12p5h7-12p7p5-14p4h7-14p7p4-|-14p7h10-14p10p7-15p5p10-15p10h5-14p
D|----------------------------------------|------------------------------------
A|----------------------------------------|------------------------------------
E|----------------------------------------|------------------------------------





E|------------------------------|-12h14h19-24p19p14p12h14-19-24p19p14p12h14-19-
B|------------------------------|----------------------------------------------
G|-7h10-14p10p7-15p5p10-15p10h5-|----------------------------------------------
D|------------------------------|----------------------------------------------
A|------------------------------|----------------------------------------------
E|------------------------------|----------------------------------------------





E|-------24p19p14p12h14-19-|-24p19p14p12h15-20-24p20p15p12h15-20-24p20p15p12h15-
B|-------------------------|----------------------------------------------------
G|-------------------------|----------------------------------------------------
D|-------------------------|----------------------------------------------------
A|-------------------------|----------------------------------------------------
E|-------------------------|----------------------------------------------------




[ Tab from: http://www.guitartabs.cc/tabs/m/morse_steve_band/cut_to_the_chase_tab.html ]
E|-20-24p20p15p12h15-20-24p20p15p12h15-17--|----------22p17p15p10h15-17-22p17p15p
B|-----------------------------------------|-------------------------------------
G|-----------------------------------------|-------------------------------------
D|-----------------------------------------|-------------------------------------
A|-----------------------------------------|-------------------------------------
E|-----------------------------------------|-------------------------------------





E|-10h15-17-22p17p15p10h15-17-22p17p15p|10h13--18-22p18p13p10h13-18-22p18p13p10h
B|-------------------------------------|----------------------------------------
G|-------------------------------------|----------------------------------------
D|-------------------------------------|----------------------------------------
A|-------------------------------------|----------------------------------------
E|-------------------------------------|----------------------------------------





E|-13-18-22p18p13p10h13-22p18p13-|-----------------------------|---12b13--13p12-
B|-------------------------------|---15b17---------------------|----------------
G|-------------------------------|-----------------------------|----------------
D|-------------------------------|-----------------------------|----------------
A|-------------------------------|-----------------------------|----------------
E|-------------------------------|-----------------------------|----------------





E-|--------------------------|-17b19~----------------|-------19b20---19--|------
B-|-15~----------------------|-----------------------|-------------------|-15~--
G-|--------------------------|-----------------------|-------------------|------
D-|--------------------------|-----------------------|-------------------|------
A-|--------------------------|-----------------------|-------------------|------
E-|--------------------------|-----------------------|-------------------|------





E|---------------|-12b13--12--10-||------------------------|-------------------
B|---------------|---------------||-3/5--5-----------------|-------------------
G|---------------|---------------||----------7b9--r-p5-----|-------------------
D|---------------|---------------||-5/7--7-------------7p5-|-7~----------------
A|---------------|---------------||------------------------|-------------------
E|---------------|---------------||-3/5--5-----------------|-------------------





E|-----|-----------------------|------------------|-10----------10-12----10----
B|-----|-----------------------|------------------|----13b15~---------13----13-
G|-----|--------2~-------------|-2p0--4b5------|----------------------------
D|-----|-------------0-1p0-----|------------------|----------------------------
A|-----|-----0-------------3p0-|------------------|----------------------------
E|-----|--3--------------------|------------------|----------------------------





E|-10----------------|-----------------------------------------------------------
B|----13-12-10-------|----------10----------------10-13-----------------------10-
G|-------------13-12-|-------------13-12-10-12-13-------12-10b12--r-----12b14----
D|-------------------|-----------------------------------------------------------
A|-------------------|-----------------------------------------------------------
E|-------------------|-----------------------------------------------------------





E-|-------------------------------------------------|---------------------|----
B-|-13----10----------------------------------------|---------------------|----
G-|----12----10~------------------------------------|---------------------|----
D-|--------------12-10-------10---------------------|---------------------|----
A-|--------------------12-10----12--11-10-8-10b12--r|-8-10--8-------------|----
E-|-------------------------------------------------|---------10p8h10~----|----





E|-----------13----------------------------------------------------------------
B|-16b18~-------16-15-14-13-13-------------------------------------------------
G|-----------------------------16-15-15-13-13-14-14----------------------------
D|--------------------------------------------------15----13-14-15-------------
A|-----------------------------------------------------15----------15-14-13-11-
E|-----------------------------------------------------------------------------





E-|---------------------------------------|---------------------------|-17-------
B-|---------------------------------------|---------------------------|----20b22-
G-|-------------------------------13b14---|------3-1b2----------------|----------
D-|---------------------8-10-8------------|-------------3-------------|----------
A-|-----------8-9-10-11--------11---------|---------------3-2-1-------|----------
E-|-8-9-10-11-----------------------------|---------------------4~----|----------





E|-------------17-19----17-------|-17-----------------------------------------|-
B|-------------------20----20-19-|----20-19-17-20-19-17-------17--------------|-
G|-------------------------------|----------------------20-19----20-19-17~----|-
D|-------------------------------|--------------------------------------------|-
A|-------------------------------|--------------------------------------------|-
E|-------------------------------|--------------------------------------------|-





E|-----24-17-20-24-17----24-17-20-24-17----24-17-20-24-17----24-----|----17-19-
B|--------------------20----------------20----------------20--------|-20-------
G|------------------------------------------------------------------|----------
D|------------------------------------------------------------------|----------
A|------------------------------------------------------------------|----------
E|------------------------------------------------------------------|----------





E|-20-22-19-20-22-24-20-19-17-20-19-17---------------|------||------------------
B|-------------------------------------20b22~--------|------||*-7---------------
G|---------------------------------------------------|------||----------------7-
D|---------------------------------------------------|------||----10-9-7-9-10---
A|---------------------------------------------------|------||*-----------------
E|---------------------------------------------------|------||------------------



         * 4

E|--------------||-------------------------------|-----------------------------
B|-------------*||-------------------------------|-----------------------------
G|--------------||-9-7-------7-9-11-9-------9-11-|-12b14~----------------------
D|-10-9-7-9-10--||-----10-10----------12-12------|-----------------------------
A|-------------*||-------------------------------|--------------------12-13-14-
E|--------------||-------------------------------|-----------12-13-14----------





E|----------------------------|---------------------------------------17-18-20-
B|----------------------------|------------------------------17-18-20----------
G|----------12-13-14----------|---14-16-17----------16-17-19-------------------
D|-12-14-15----------14-16-17-|------------16-17-19----------------------------
A|----------------------------|------------------------------------------------
E|----------------------------|------------------------------------------------





E|-20b22~--------|-13h17-20-25p20p17p13\12/13h17-20-25p20p17p13\12/13h17-20-25p
B|---------------|-------------------------------------------------------------
G|---------------|-------------------------------------------------------------
D|---------------|-------------------------------------------------------------
A|---------------|-------------------------------------------------------------
E|---------------|-------------------------------------------------------------





E|-20p17p13\12/13h17--20-25p20p17p13\12/13h17-20-25p20p17p13\12/13h17-|-20-25p20p
B|--------------------------------------------------------------------|----------
G|--------------------------------------------------------------------|----------
D|--------------------------------------------------------------------|----------
A|--------------------------------------------------------------------|----------
E|--------------------------------------------------------------------|----------





E|-17p13\10/11h15-18-23p18p15p11\10/11h15-18-23p18p15p11\10/11h15--------18-23p
B|-----------------------------------------------------------------------------
G|-----------------------------------------------------------------------------
D|-----------------------------------------------------------------------------
A|-----------------------------------------------------------------------------
E|-----------------------------------------------------------------------------





E|-18p15p11\10/11h15-18-23p18p15p11\10/11h15-18-23p18p15p11\10/11h15-|-18-23p18p
B|-------------------------------------------------------------------|----------
G|-------------------------------------------------------------------|----------
D|-------------------------------------------------------------------|----------
A|-------------------------------------------------------------------|----------
E|-------------------------------------------------------------------|----------





E|-15p11\10/13h17-20-25p20p17p13\12/13h17-20-25p20p17p13\12/13h17-20-25p20p17p13\
B|-------------------------------------------------------------------------------
G|-------------------------------------------------------------------------------
D|-------------------------------------------------------------------------------
A|-------------------------------------------------------------------------------
E|-------------------------------------------------------------------------------





E|-12/13h17--20-25p20p17p13\12/13h17-20-25p20p17p13\12/13h17-|-20-25p20p17p13\10/
B|-----------------------------------------------------------|-------------------
G|-----------------------------------------------------------|-------------------
D|-----------------------------------------------------------|-------------------
A|-----------------------------------------------------------|-------------------
E|-----------------------------------------------------------|-------------------





E|-11h15---18-23p18p15p11\10h14-----17-22p17p14p10\8h12-15-20p15p12p8\6h10-13-18p
B|-------------------------------------------------------------------------------
G|-------------------------------------------------------------------------------
D|-------------------------------------------------------------------------------
A|-------------------------------------------------------------------------------
E|-------------------------------------------------------------------------------





E|-13p10p6\5h9-12-17p12p15p9\5\4\-----||----------------------------------------
B|------------------------------------||---------------------12-12b13-13p12-----
G|------------------------------------||------------------13-----------------14-
D|------------------------------------||---------------14-----------------------
A|------------------------------------||----------------------------------------
E|------------------------------------||----------------------------------------





E-|------------12b13--13p12-----|-----12-15-15b16--15--13-|-----13-18-20b22--20-
B-|-----12--15---------------15-|-13~---------------------|-15~-----------------
G-|-12~-------------------------|-------------------------|---------------------
D-|-----------------------------|-------------------------|---------------------
A-|-----------------------------|-------------------------|---------------------
E-|-----------------------------|-------------------------|---------------------





E|-18-||---------20b22~--8b10--r-p6-8-10-|-------------------------|-18b20--r15-
B|----||---------------------------------|-8-----------------------|------------
G|----||---------------------------------|-------------------------|------------
D|----||---------------------------------|-------------------------|------------
A|----||---------------------------------|-------------------------|------------
E|----||---------------------------------|-------------------------|------------





E|-------15---------------|-------------|------3------3------3---------------|-
B|-18-15----18b20---------|-1--3--------|------------------------------------|-
G|------------------------|--------5b7--|--------5b7----5b7----5b7--r-p3-----|-
D|------------------------|-3--5--------|--------------------------------5p0-|-
A|------------------------|-------------|------------------------------------|-
E|------------------------|-1--3--------|------------------------------------|-





E|-----------------------|-----------|------------------|----------------------
B|-1-3-------------------|-----------|------------------|----------------------
G|-----------------------|-----------|------------------|------3p0-----0-------
D|-3-5-------------------|-----------|------------------|----------2p0----5~---
A|--------3b5--r-p1------|-----------|------------------|----------------------
E|-1-3--------------3p1--|-3~--------|-1b2----3~--------|----------------------





E|---|------------------------|-------------|-------12--12p10-11-10-|------------
B|---|-3/5-5------------------|-------------|-3--5------------------|------13p10-
G|---|---------7b9--r-p5------|-------------|-----------------------|------------
D|---|-5/7-7-------------7p5--|-7~----------|-5--7------------------|------------
A|-7\|------------------------|-------------|-----------------------|------------
E|---|-3/5-5------------------|-------------|-3--5------------------|------------





E|-14------12----------------|-------------|------------------|-----------------
B|----13b-----13-10~----13\--|-5-6~--5-6~--|--/7-8-8b10-------|-9-10~---9-10~---
G|---------------------------|-----5-----5-|--------------7/9-|-------9-------9-
D|---------------------------|-------------|------------------|-----------------
A|---------------------------|-------------|------------------|-----------------
E|---------------------------|-------------|------------------|-----------------





E-|-----------------12-----10--15-|--------15-----18--22-|-22b24---||-
B-|----------10~-13----12~--------|-13~-16----18~--------|---------||-
G-|-------------------------------|----------------------|---------||-
D-|-------------------------------|----------------------|---------||-
A-|-------------------------------|----------------------|---------||-
E-|-------------------------------|----------------------|---------||-


Comments