Morse Steve - Glad To Be Chords & Tabs

 

Glad To Be Chords & Tabs

Morse Steve Chords & Tabs

Version: 1 Type: Bass Tab 0 ratings
1 star 2 stars 3 stars 4 stars 5 stars
comments

Glad To Be Bass Tab

   Guilherme Monteiro Roxo


    Steve Morse Band  "Glad to be" - From album StressFest

     
      Intro
   |---------2-------------2-1-------------2---------------------------2--------------|
   |o---------------------------2--------------------------2--------------------------|
   |o-R--3-5---2----5-------------0-2-3-5-----2-----5----5-----0-2-3-5---2---5--------|
   |-------------3-----2-------------------------3----2--------------------3----2-----|


   |--2-1-------------2----------------|
   |-------2--------------------------o|
   |----------0-2-3-5---0-2-5---------o|
   |----------------------------3-2-0--|


     Riff 1
   |-------2--------2-1------------|-----2-------2-4----------------|
   |o----4--------------2----------|---4-------------2-------------o|
   |o--5-----4-4-5-----------------|-5-----4-4-5----------5-4-0----o|
   |-----------------------0-2-4-5-|------------------4-5-----------|

[ Tab from: http://www.guitartabs.cc/tabs/m/morse_steve/glad_to_be_btab.html ]
    Riff 2
   |------------------|-------------------------|
   |o-----------------|------------------2-----o|
   |o--2-2---2--------|--2-2---2------------5--o|
   |-------5---5-0-2-5|------5---5-0-2-5--------|


     Bridge
   |-------2------4---6-----|-------------------11-------|----------------4----------------|
   |-----2------4-------6---|------7------9--11----11----|--------7-----4---------11-------|
   |---------2------------4-|--0-7------9----------------|-----7----7-------4-6-7----11----|
   |--5---------------------|- ------7-----------------2-|-4-5---------------------------2-|


   |---------|----------------|
   |---------|----------------|
   |---2-4-5-|--5----4----2---|
   |-0-------|----5----5----3-|


      Ending
   |-------6-----------6-5----------------------------------------------------6-5--|
   |o----------------------6----------9-------------6--------------9--------------6|
   |o-7--9---6----9-------------6-7-9----6---9----9--------4-6-7-9---6---9---------|
   |------------7---6---------9------------7----6------4-7-------------7---6-------|


   |--------------------------|
   |---------9---------------o|
   |---6-7-9-----6-9---------o|
   |-9---------9------7-6-4---|

Comments