Morse Steve - 16 Note Arpeggios Chords & Tabs

 

16 Note Arpeggios Chords & Tabs

Morse Steve Chords & Tabs

Version: 1 Type: Tab 0 ratings
1 star 2 stars 3 stars 4 stars 5 stars
comments

16 Note Arpeggios Tab

Steve Morse
16 Note Arpeggios


Steve uses strict alternate picking for these arpeggios. To play as well as Steve
practise slowly and built up faster each time.4 note per click with metronome
Cheers and good luck.
                                                                                
E---||-----------------------------------------------------|--------------------
B---||---------6-----------5-----------6------------8------|--------------------
G---||*----------------------------------------------------|--------------------
D---||*-----7-----7-----7-----7-----7-----7-----10-----10--|--------------------
A---||---5-----------4-----------5-----------7-------------|--------------------
E---||-----------------------------------------------------|--------------------
                                                                                

                                                                                
E--------------------------------------------------------------|----------------
B----------10-------------8-------------10-------------10------|----------------
G--------------------------------------------------------------|----------------
D------10------10-----10-----10-----10------10-----12------12--|----------------
A---8--------------7-------------8--------------9--------------|----------------
E--------------------------------------------------------------|----------------
                                                                                
[ Tab from: http://www.guitartabs.cc/tabs/m/morse_steve/16_note_arpeggios_tab.html ]
                                                                                
E------------------------------------------------------------------------|------
B-----------------11-------------10--------------11--------------13------|------
G------------------------------------------------------------------------|------
D-------------12------12-----12------12------12------12------15------15--|------
A---------10--------------9--------------10--------------12--------------|------
E------------------------------------------------------------------------|------
                                                                                

                                                                                
E--------------------------------------------------------------------||---------
B-----------15--------------17--------------15--------------14-------||---------
G-------------------------------------------------------------------*||---------
D-------15------15------15------15------14------14------14------14--*||---------
A---13--------------13--------------12--------------12---------------||---------
E--------------------------------------------------------------------||---------
                                                                                

                                                                                
E-------------------------------------------------------------------|-----------
B-----------15--------------17--------------17--------------18------|-----------
G-------------------------------------------------------------------|-----------
D-------15------15------15------15------17------17------17------17--|-----------
A---13--------------13--------------15--------------15--------------|-----------
E-------------------------------------------------------------------|-----------
                                                                                

                                                                                
E--------------------------------||---------------------------------------------
B---17^--(18)~~~-----------------||---------------------------------------------
G--------------------------------||---------------------------------------------
D--------------------------------||---------------------------------------------
A--------------------------------||---------------------------------------------
E--------------------------------||---------------------------------------------
Comments