Morrissey - Suedehead Chords & Tabs

 

Suedehead Chords & Tabs

Morrissey Chords & Tabs

Version: 2 Type: Tab 0 ratings
1 star 2 stars 3 stars 4 stars 5 stars
comments

Suedehead Tab

one of mozzer's best songs and was actually quite easy to tab.there's not enough
mozzer tabs on this site aswell-all boring chords!have fun! 
Suedehead
Intro
E |-----5----------7-7-7----------10-10-10-------------------------------------------|
B |-----6----------------8-8-8-10----------10-10-10----10-8----------------------8-8-|
G |-----5---------------------------------------------------10-10--7-10-10-10-10-----|
D |----------------------------------------------------------------------------------|
A |----------------------------------------------------------------------------------|
E |----------------------------------------------------------------------------------|

E |----7-7-7----------10-10-10-------------------------------------------------------|
B |----------8-8-8-10----------10-10-10--10-8---------------8-8-h10-10---------------|
G |-------------------------------------------10-10-7-10-10--------------------------|
D |----------------------------------------------------------------------------------|
A |----------------------------------------------------------------------------------|
E |----------------------------------------------------------------------------------|
[ Tab from: http://www.guitartabs.cc/tabs/m/morrissey/suedehead_tab_ver_2.html ]
Riff 1
E |----2--2--2--3--3--3--2--2--2--0--0--0--0-----------------------------------------|
B |----3--3--3--3--3--3--3--3--3--3--3--3--3-----------------------------------------|
G |----2--2--2--2--2--2--2--2--2--2--2--2--2-----------------------------------------|
D |----------------------------------------------------------------------------------|
A |----------------------------------------------------------------------------------|
E |----------------------------------------------------------------------------------|

Riff 2
E |------0-----0-----0-----0-----0---0----0-----0-----0-----0-----0------------------|
B |--------1-----1-----1-----1-----1--------1-----1-----1-----1----------------------|
G |----0-----0-----0-----0-----0--------0-----0-----0-----0-----0---0----------------|
D |----------------------------------------------------------------------------------|
A |----------------------------------------------------------------------------------|
E |----------------------------------------------------------------------------------|

Riff 3
E |-----0----0----0----0----0----0---------------------------------------------------|
B |-----5----3----5----3----5----3---------------------------------------------------|
G |-----5----5----5----5----5----5---------------------------------------------------|
D |-----5----5----5----5----5----5---------------------------------------------------|
A |----------------------------------------------------------------------------------|
E |----------------------------------------------------------------------------------|

Riff 4
E |-------1-----1------S-------5-----5-----5-----------------------------------------|
B |---------1-----1-----L--------5-----5---------------------------------------------|
G |-----2-----2-----2-2--I---------5-----5-------------------------------------------|
D |-----------------------D----------------------------------------------------------|
A |------------------------E---------------------------------------------------------|
E |----------------------------------------------------------------------------------|
Comments