Morrissey - Spring Heeled Jim Chords & Tabs

 

Spring Heeled Jim Chords & Tabs

Morrissey Chords & Tabs

Version: 2 Type: Tab 0 ratings
1 star 2 stars 3 stars 4 stars 5 stars
comments

Spring Heeled Jim Tab

   
SPRING HEELED JIM by MORRISSEY (Morrissey/Whyte), from ‘VAUXHALL & I’, 1994

Updated tab by Builderboy@comcast.net. Thanks to original tab by Winston Campbell

INTRO           
 
   A   
|-------------------|-------------------|-------------------|-------------------|
|-------------------|-------------------|-------------------|-------------------|
|-------------------|-------------------|-------------------|-------------------|
|--7-7-7-7-7-7-7-7--|-------------------|--7-7-7-7-7-7-7-7--|-------------------|
|-------------------|-------------------|-------------------|-------------------|
|-------------------|--5-5-5-5-5-5-5-5--|-------------------|--5-5-5-5-5-5-5-5--|

   A             A7   C#m           C#m7  A              A7   C#m          C#m7
|-----------5-------|----------4--------|-----------5-------|----------4--------|
|------5-----5----6-|-----5-----5-----5-|------5-----5----6-|-----5-----5-----5-|
|--6----6-----6--8--|--6---6-----6--8---|--6----6-----6--8--|--6---6-----6--8---|
|-7-7----7----------|---6---6-----------|-7-7----7----------|---6---6-----------|
|-7-----------------|-4-----------------|-7-----------------|-4-----------------|
|-5-----------------|-------------------|-5-----------------|-------------------|

[ Tab from: http://www.guitartabs.cc/tabs/m/morrissey/spring_heeled_jim_tab_ver_2.html ]
   G#                  C#m                 E                  F#      F#sus4
|--4----------------|--4----------------|--4----------------|--6-------7--6-----|
|--4----------------|--5----------------|--5----------------|--7-------7--------|
|--5----------------|--6----------------|--4----------------|--6-------6--------|
|--6----------------|--6----------------|--6----------------|--8----------------|
|--6----------------|--4----------------|--7----------------|--9----------------|
|--4----------------|-------------------|-------------------|-------------------|
  Spring-Heeled Jim winks an eye        He’ll do, he’ll never be done to
  Spring-Heeled Jim lives to love       Now kissing with his mouth full
  Spring-Heeled Jim slurs the words     There is no need to be so knowing
  Until Jim feels the chill             Oh where did all the time go

   G#                  C#m                E                   F#      F#sus4
|--4----------------|--4----------------|--4----------------|--6-------7--6-----|
|--4----------------|--5----------------|--5----------------|--7-------7--------|
|--5----------------|--6----------------|--4----------------|--6-------6--------|
|--6----------------|--6----------------|--6----------------|--8----------------|
|--6----------------|--4----------------|--7----------------|--9----------------|
|--4----------------|-------------------|-------------------|-------------------|
  He takes on whoever flew through      Well it’s the normal thing to do
  And his eyes on some other fool   So many women, his head should be spinning
  Take life at five times your average speed             Like I do
  Once always in for the kill Now it~s too cold             And he feels too old

   A             A7   C#m           C#m7  A              A7   C#m          C#m7
|-----------5-------|----------4--------|-----------5-------|----------4--------|
|------5-----5----6-|-----5-----5-----5-|------5-----5----6-|-----5-----5-----5-|
|--6----6-----6--8--|--6---6-----6--8---|--6----6-----6--8--|--6---6-----6--8---|
|-7-7----7----------|---6---6-----------|-7-7----7----------|---6---6-----------|
|-7-----------------|-4-----------------|-7-----------------|-4-----------------|
|-5-----------------|-------------------|-5-----------------|-------------------|
    ahhh….
    Oh, but no….
(ending instrumental played with verse chords)
Comments