Morrissey - Sing Your Life Chords & Tabs

 

Sing Your Life Chords & Tabs

Morrissey Chords & Tabs

Version: 1 Type: Bass Tab

Sing Your Life Bass Tab

   
Sing Your Life
Morrissey

Verse A
G |--------------------------------|-3-----------3---5-----------5--|
D |-5-----------3---5-----------3--|-------3---------------5--------|
A |-------5---------------5--------|--------------------------------|
E |--------------------------------|--------------------------------|

Chorus
G |-8-----8---------7-----7--------|-8-----8--------------2------5--|
D |--------------------------------|-----------------3--------------|
A |--------------------------------|--------------------------------|
E |--------------------------------|--------------------------------|
[ Tab from: http://www.guitartabs.cc/tabs/m/morrissey/sing_your_life_btab.html ]
VerseB
G |-3---------------3--------------|-0---------------0--------------|
D |-------3---------------3--------|-------0--------------0---------|
A |--------------------------------|--------------------------------|
E |--------------------------------|--------------------------------|

G |-5---------------5--------------|-9-----12---15------------------|
D |-------5---------------5--------|--------------------------------|
A |--------------------------------|-----------------9----10-----9--|
E |--------------------------------|--------------------------------|

Order:
[00:15] A Huge Slide

[00:16] Verse A 2x
[00:27] Chorus
[00:32] Verse B 2x
Repeat This