Morrissey - Irish Blood English Heart Chords & Tabs

 

Irish Blood English Heart Chords & Tabs

Morrissey Chords & Tabs

Version: 1 Type: Tab 0 ratings
1 star 2 stars 3 stars 4 stars 5 stars
comments

Irish Blood English Heart Tab

Intro/Verse:
|-----------------|------------------|
|-----------------|------------------|
|-5-5-5-5-5-7-7-5-|-5-4-5-4-5-4-5-4--|
|-7-5-7-5-7-5-5-5-|-3-3-3-3-3-3-3-3--|
|-----------------|------------------|
|-----------------|------------------|


Break 1 into chorus:
|------------------------|
|------------------5-----|
|------------------7^----|
|------------------------|
|------------------------|
|------------------------|
"Ive been dreaming of 

Chorus:
|-------------------------------------------------------------|
|-------------------------------------------------------------|
|------------------12------10------9--7-----------------------|
|-3-3-3-3-3-3-3-3--x-------x-------x--x--------------3-------|
|-3-3-3-3-3-3-3-3--10------8-------7--5--------------3-------|
|-1-1-1-1-1-1-1-1------------------------------------1-------|
  time when           to be English      Is not to be baneful
[ Tab from: http://www.guitartabs.cc/tabs/m/morrissey/irish_blood_english_heart_tab.html ]
|-------------------------------------------------------------|
|-------------------------------------------------------------|
|-------10--------------12----------------14------16----17----|
|-------x---------------x-----------------x-------x-----x-----|
|-------8---------------10----------------12------14----15----|
|-------------------------------------------------------------|
  to be standing by the flag, not feeling shameful      racist or racial 


Riff:
|-------------------------|
|-------------------------|
|-2------x--12-11-10------|
|-2------x--x--x--x-------|
|-0------x--10-9--8-------|
|-------------------------|
x2

Break 2
|---------------------|
|----------------5----|
|----------------7^---|
|-----------3-5-------|
|-------3-5-----------|
|-1-3-5---------------|



Solo:
|-12p10-8--15-14-13-12--|
|-----------------------|
|-----------------------|
|-----------------------|
|-----------------------|
|-----------------------|

Lyrics:
Irish blood, English heart 
This I'm made of 
There is no one on earth I'm afraid of 
And no regime can buy or sell me 

I've been dreaming of a time when 
to be English is not to be baneful 
to be standing by the flag, not feeling shameful 
racist or racial 

Irish blood, English heart 
this I'm made of 
There is no one on earth I'm afraid of 
And I will die with both of my hands untied 

I've been dreaming of a time when 
the English are sick to death 
of Labour, and Tories 
and spit upon the name Oliver Cromwell 
and denounce this royal line that still salute him 
and will salute him 
FOREVER...


Intro
Verse 1
Break 1
Chorus
Riff
Verse 2
Chorus
Riff
Break 2
Riff and Riff from end chorus
Solo
Comments