Morrissey - I Know Very Well How I Got My Name Chords & Tabs

 

I Know Very Well How I Got My Name Chords & Tabs

Morrissey Chords & Tabs

Version: 1 Type: Tab 0 ratings
1 star 2 stars 3 stars 4 stars 5 stars
comments

I Know Very Well How I Got My Name Tab

   
transcribed By Marvin Hernandez
technician1984@yahoo.com
April 30 2005

Morrissey and vicent gerad - I know very well how i got my name




intro repeated among verses try to hammer the notes finger pick them

e|------2-3-2-x-2-3-5------------333-2-3-2-2----------|
b|----3--------------55-3-5-2----333-3-3-3------------|
g|--2--------------------------------------2----------|
d|----------------------------------------------------|
a|----------------------------------------------------|
e|----------------------------------------------------|


riff  number II two play on Bm chord
e|-----------------------333--3-----------|
b|-----3~2~3~2-----------553--2-----------|
g|----4-----------------------------------|
d|---4------------------------------------|
a|--2-------------------------------------|
e|----------------------------------------|




Intro:
D Bm x2


Verse 1:
  D                   Bm
A child in a curious phase
  D               Bm
A man with sullen ways
     D               Bm              
oh I know very well how I got my name


D Em

[ Tab from: http://www.guitartabs.cc/tabs/m/morrissey/i_know_very_well_how_i_got_my_name_tab.html ]
Chorus:
A                     G              
You think you were my first love
A                     G             
You think you were my first love
           	 Bm
but you're wrong
             A                                     
you were the only one
      G                                    
who's come and gone


D Bm x2


Verse 2:
     D              Bm
When thirteen years old,
    D             Bm
who died his hair gold?
     D
oh I know very well 
        Bm
I don't need to be told


D Bm


Chorus:
A                     G              
You think you were my first love
A                     G             
You think you were my first love
           	 Bm
but you're wrong
             A                                     
you were the only one
      G                                    
who's come and gone

D dsus2 Bm x2 


             A              G            
you were the only one who's gone
Comments