Morrissey - I Dont Mind If You Forget Me Chords & Tabs

 

I Dont Mind If You Forget Me Chords & Tabs

Morrissey Chords & Tabs

Version: 1 Type: Bass Tab

I Dont Mind If You Forget Me Bass Tab

I Don't Mind If You Forget Me
Morrissey


Intro (Play slow)
G |--------------------------------|--------------------------------||
D |--------------------------------|--------------------------------||
A |-0------------------------------|-----------------5--------------||
E |-----------------0--------------|-2------------------------------|| 2x

Chorus
G |--------------------------------|--------------------------------|
D |--------------------------------|--------------------------------|
A |-0-^-2-4---2-0--(0)-------------|-------------------5-5---5---4--|
E |-------------------0-0---0---0--|-2---2-2---2-2------------------|

Verse
G |--------------------------------|--------------------------------|
D |--------------------------------|--------------------------------|
A |--------------------------------|--------------------------------|
E |-0-----0-----0-----------0------|-0-----0-----2-----0-0---0------|
[ Tab from: http://www.guitartabs.cc/tabs/m/morrissey/i_dont_mind_if_you_forget_me_btab.html ]
G |--------------------------------|--------------------------------|
D |--------------------------------|--------------------------------|
A |-5-----5-----5-----5-----5------|-5-----4-----0-----0-----0---2--|
E |--------------------------------|--------------------------------|

G |--------------------------------|--------------------------------|
D |--------------------------------|--------------------------------|
A |-4-----4-----4-----4-----4------|--------------------------------|
E |--------------------------------|-2-----2-----2-----2-----2------|

G |--------------------------------|--------------------------------|
D |--------------------------------|--------------------------------|
A |-4-----4-----4-----4-----4------|-5-----5-----5-----5-----5------|
E |--------------------------------|--------------------------------|

Outro
G |--------------------------------|--------------------------------|
D |-7---7-7---7-7-----6-6---6---6--|-4---4-4---4-4-----0-0---0------|
A |--------------------------------|-----------------------------4--|
E |--------------------------------|--------------------------------|

Order:
[00:00] Intro
[00:20] Chorus 2x

[00:39] Verse
[00:59] Chorus 4x
Repeat this 2x

(Rejection is one thing...but rejection from a fool is cruel)
[02:18] Chorus 4x
[02:48] Outro