Morrissey - How Could Anyone Possibly Know How I Feel Chords & Tabs

 

How Could Anyone Possibly Know How I Feel Chords & Tabs

Morrissey Chords & Tabs

Version: 1 Type: Tab 0 ratings
1 star 2 stars 3 stars 4 stars 5 stars
comments

How Could Anyone Possibly Know How I Feel Tab

   
Intro:-
|------------------------------------------------|
|------------------------------------------------|
|------------------------------------------------|
|-----5-------5-------5------5--7-7-7-5--7-7-7-5-|
|---5-------5-------5------5----7-7------7-7-----|
|-3-----3-5-----5-6----6-8------5-5------6-6-----|x2

Riff 1:-
|----------------------------------------|
|----------------------------------------|
|-----4-2-4----4-5-4---4-7-4--5-4-2------|
|-----------5--------5--------------5----|
|---5------------------------------------|
|-3--------------------------------------|

[ Tab from: http://www.guitartabs.cc/tabs/m/morrissey/how_could_anyone_possibly_know_how_i_feel_tab.html ]
Pre-Chorus:-
Guitar 1:
|----------------------------------------|
|----------------------------------------|
|-------------------5---------8----------|
|-5--------8--------5---------8----------|
|-5--------8--------3---------6--5~------|
|-3--------6-----------------------------|

Guitar 2:
|----------------------------------------|
|----------------------------------------|
|-4-4-4-4--7-7-7-7--9-9-9-9---12121212---|
|-5-5-5-5--8-8-8-8--10101010--13131313---|
|-5-5-5-5--8-8-8-8--10101010--13131313---|
|----------------------------------------|x2


Bridge:-

  C5   G5  C5   G5  A5  G5  A5  D5
|----------------------------------------|
|----------------------------------------|
|----------------------------------------|
|-10---5---10---5---7---5---7---12-------|
|-10---5---10---5---7---5---7---12-------|
|-8----3---8----3---5---3---5---10-------|


Order
Intro,
Verse- Riff 1 x2
Pre Chorus
Chorus- Intro x2
Verse- Riff 1 x2
Pre Chorus
Chorus- Intro x4
Bridge
Chorus- Intro x8
Comments