Morrissey - Find Out For Yourself Chords & Tabs

 

Find Out For Yourself Chords & Tabs

Morrissey Chords & Tabs

Version: 1 Type: Tab 0 ratings
1 star 2 stars 3 stars 4 stars 5 stars
comments

Find Out For Yourself Tab

   
WHY DON’T YOU FIND OUT FOR YOURSELF by MORRISSEY, from the album ‘VAUXHALL & I’
tabbed by builderboy@comcast.net

YEAR OF ALBUM


INTRO           
  Ebm                  Bmaj7              G#m9
|-6-----------------|--2----------------|--6----------------|-------------------|
|-7-----------------|--4----------------|--4----------------|-------------------|
|-8-----------------|--3----------------|--4----------------|-------------------|
|-8-----------------|--4----------------|--6----------------|-------------------|
|-6-----------------|--2----------------|--6----------------|-------------------|
|-------------------|-------------------|--4----------------|-------------------|



  Ebm                 Bmaj7               G#m                  C#
|-------------------|-------------------|-------------------|-------------------|
|-------------------|-------------------|-------------------|-------------------|
|-------------------|-------------------|-------------------|-------------------|
|-------------------|-------------------|-------------------|-------------------|
|-------------------|-------------------|-------------------|-------------------|
|-------------------|-------------------|-------------------|-------------------|



   F#                                      C#
|--6----------------|-------------------|--4----------------|-------------------|
|--7----------------|-------------------|--6----------------|-------------------|
|--6----------------|-------------------|--6----------------|-------------------|
|--8----------------|-------------------|--6----------------|-------------------|
|--9----------------|-------------------|--4----------------|-------------------|
|-------------------|-------------------|-------------------|-------------------|
                  They say these days are mad   ................-


    G#m                                   B
|---4---------------|-------------------|--2----------------|-------------------|
|---4---------------|-------------------|--4----------------|-------------------|
|---4---------------|-------------------|--4----------------|-------------------|
|---6---------------|-------------------|--4----------------|-------------------|
|---6---------------|-------------------|--2----------------|-------------------|
|---4---------------|-------------------|-------------------|-------------------|
   self?              Then you’ll see the .............
   are                    And what do you do?                 .........


  Ebm                  Bmaj7              G#m
|-6-----------------|--2----------------|--4----------------|-------------------|
|-7-----------------|--4----------------|--4----------------|-------------------|
|-8-----------------|--3----------------|--4----------------|-------------------|
|-8-----------------|--4----------------|--6----------------|-------------------|
|-6-----------------|--2----------------|--6----------------|-------------------|
|-------------------|-------------------|--4----------------|-------------------|



  Ebm                 Bmaj7               G#m                  C#
|-------------------|-------------------|-------------------|-------------------|
|-------------------|-------------------|-------------------|-------------------|
|-------------------|-------------------|-------------------|-------------------|
|-------------------|-------------------|-------------------|-------------------|
|-------------------|-------------------|-------------------|-------------------|
|-------------------|-------------------|-------------------|-------------------|


[ Tab from: http://www.guitartabs.cc/tabs/m/morrissey/find_out_for_yourself_tab.html ]
   A#                 D#m                  B                  F#
|--6----------------|--6----------------|--7----------------|-------------------|
|--6----------------|--7----------------|--7----------------|-------------------|
|--7----------------|--8----------------|--8----------------|-------------------|
|--8----------------|--8----------------|--9----------------|-------------------|
|--8----------------|--6----------------|--9----------------|-------------------|
|--6----------------|-------------------|--7----------------|-------------------|
                Some men here                       they have .........
                Some men here                      they know the full ..........



   A#                 D#m                  B                  C#
|---4---------------|-------------------|--7----------------|--4----------------|
|---4---------------|-------------------|--7----------------|--6----------------|
|---4---------------|-------------------|--8----------------|--6----------------|
|---6---------------|-------------------|--9----------------|--6----------------|
|---6---------------|-------------------|--9----------------|--4----------------|
|---4---------------|-------------------|--7----------------|-------------------|
             in your career,  they want to help  ........................
             your distress, they kneel .............................



   F#                                      C#
|--6----------------|-------------------|--4----------------|-------------------|
|--7----------------|-------------------|--6----------------|-------------------|
|--6----------------|-------------------|--6----------------|-------------------|
|--8----------------|-------------------|--6----------------|-------------------|
|--9----------------|-------------------|--4----------------|-------------------|
|-------------------|-------------------|-------------------|-------------------|
                          siphon all your dough       ................
                             “Long may it last”       ......................
                         Don’t rake up my mistakes     ..................

    G#m                                   B
|---4---------------|-------------------|--2----------------|-------------------|
|---4---------------|-------------------|--4----------------|-------------------|
|---4---------------|-------------------|--4----------------|-------------------|
|---6---------------|-------------------|--4----------------|-------------------|
|---6---------------|-------------------|--2----------------|-------------------|
|---4---------------|-------------------|-------------------|-------------------|
     yourself           then you’ll see ............................
     yourself           then you’ll see .............................
     are                    and what do you do?                       .........


   F#                                      C#
|--6----------------|-------------------|--4----------------|-------------------|
|--7----------------|-------------------|--6----------------|-------------------|
|--6----------------|-------------------|--6----------------|-------------------|
|--8----------------|-------------------|--6----------------|-------------------|
|--9----------------|-------------------|--4----------------|-------------------|
|-------------------|-------------------|-------------------|-------------------|
    grass          You’ll never believe me ........................                         
    grass               Bad seeds come and go                ...................
    sit there        I’ve been stabbed ........................................

    G#m                                   B
|---4---------------|-------------------|--2----------------|-------------------|
|---4---------------|-------------------|--4----------------|-------------------|
|---4---------------|-------------------|--4----------------|-------------------|
|---6---------------|-------------------|--4----------------|-------------------|
|---6---------------|-------------------|--2----------------|-------------------|
|---4---------------|-------------------|-------------------|-------------------|
     yourself             sick down to my heart      .......................
     allow                sick down to my heart      ................
     times               I don’t have any skin       .............


Comments