Morrissey - Certain People I Know Chords & Tabs

 

Certain People I Know Chords & Tabs

Morrissey Chords & Tabs

Version: 1 Type: Bass Tab 0 ratings
1 star 2 stars 3 stars 4 stars 5 stars
comments

Certain People I Know Bass Tab

Certain People I Know
Morrissey

Chorus
G |--------------------------------|--------------------------------||
D |--------------------------------|--------------------------------||
A |--------------------------------|-2---2---2---2---4---4---4---4--||
E |-2---2---2---2---2---2---2---2--|--------------------------------|| 2x

Verse
G |--------------------------------|--------------------------------|
D |--------------------------------|--------------------------------|
A |-5---5---5---5---5---5---4---4--|-2---2---2---2---2---2---0---0--|
E |--------------------------------|--------------------------------|
[ Tab from: http://www.guitartabs.cc/tabs/m/morrissey/certain_people_i_know_btab.html ]
G |--------------------------------|--------------------------------|
D |--------------------------------|--------------------------------|
A |--------------------------------|-----------------4---2---1------|
E |-3---3---3---3---3---3---3---3--|-4---4---4---4---------------4--|

Instrumental
G |--------------------------------|--------------------------------||
D |--------------------------------|---------1---1-----------3---3--||
A |-7---7---6---6---4---4---1---1--|-2---2-----------4---4----------||
E |--------------------------------|--------------------------------|| 2x

Break
G |--------------------------------|--------------------------------|
D |-8---8---8---8------------------|--------------------------------|
A |-----------------8---8---8---8--|-3---3---3---3---6---4---3------|
E |--------------------------------|-----------------------------6--|

Order:
[00:00] Chorus 2x
[00:25] Verse
[00:37] Chorus
[00:49] Instrumental
[01:01] Verse
[01:14] Chorus
[01:26] Break
[01:32] Chorus
[01:45] Verse
[01:57] Chorus
[02:09] Instrumental until end
Comments