Morrissey - America Is Not The World Chords & Tabs

 

America Is Not The World Chords & Tabs

Morrissey Chords & Tabs

Version: 1 Type: Bass Tab 0 ratings
1 star 2 stars 3 stars 4 stars 5 stars
comments

America Is Not The World Bass Tab

America Is Not the World
Morrissey
Bass Tab


Intro [Bass comes in 00:28]

|------------------------------------|
|------------------------------------|
|-------------------------------5----|
|-5--------0--------0--1-------------|

Verse

|------------------------------------|
|-------------------------3-----3----|
|-3------3----3------3------3h5------|
|----3h5---------3h5-----------------|

|------------|
|------------|
|-5-----5----|
|---5h7------| x2

"But where the President"

|------------------------------------------------------------------|
|-7-----7-------------------------------------7-----7--------------|
|----7-------7-----7----5-----5----7-----7-------7-------7-----7---|
|---------------7----------5----------7---------------------7------|

|---------------------------------------|
|----------------------3h5-5-3-----5----|
|-5-----5----------3h5----------5-------|
|----5-------3-3h5----------------------|

Verse 2

|-------------------------------------------------------------------------------|
|-----------------------------------------------------3------------3--3----3----|
|-3------------3-------3----3------------3-------3-------3-3-3-3-3------3-------|
|----3-3-3-3-3----3h5----------3-3-3-3-3----3h5---------------------------------|

|-------------------------------------------------------------------------------|
|-------------------------------------------------------------------------------|
|-5------------5------5----3------------3-----3----3-----------3-----3----------|
|----5-5-5-5-5----5-5---------3-3-3-3-3---3-3--------3-3-3-3-3---3-3------------|

|--------------------------------------------|
|-3-----------3-3---3------------------------|
|---3-3-3-3-3-----3------5-----------5-5---5-|
|--------------------------5-5-5-5-5-----5---|

"And don't you wonder"

|-------------------------------------------------------------------------------|
|-7------------7--7----7--------------------------------------------------------|
|----7-7-7-7-7------7-------7------------7-------7----8------------8--8----8----|
|------------------------------7-7-7-7-7----7-7----------8-8-8-8-8------8-------|
[ Tab from: http://www.guitartabs.cc/tabs/m/morrissey/america_is_not_the_world_btab.html ]
|-------------------------------------------------------------------------------|
|----------------7-7--7----7------------7--7----7-------------------------------|
|-5------------5--------------7-7-7-7-7------7-------7------------7-----7-------|
|----5-5-5-5-5------------------------------------------7-7-7-7-7---7-7---------|

|---------------------------------------------|
|---------------------------------------5-5-5-|
|-8------------8-8---8----5-----------5-------|
|----8-8-8-8-8-----8--------5-5-5-5-5---------|

Repeat Verse 2

"And I have got nothing to offer you"

|-------------------------------------------------------------------------------|
|-7------------7--7----7--------------------------------------------------------|
|----7-7-7-7-7------7-------7------------7-------7----5------------5--5----5----|
|------------------------------7-7-7-7-7----7-7----------5-5-5-5-5------5-------|

|-------------------------------------------------------------------------------|
|--------------------------7------------7--7----7-------------------------------|
|-7------------7------7-------7-7-7-7-7------7-------7------------7-----7-------|
|----7-7-7-7-7---7-7------------------------------------7-7-7-7-7---7-7---------|

|-----------------------------------------------|
|-----------------------------------3h5--3------|
|-5------------5-----5----------3h5--------5----|
|----5-5-5-5-5---5-5------3--5------------------|

Repeat Verse 2

"For haven't you me with you now"

|-------------------------------------------------------------------------------|
|-7------------7--7----7--------------------------------------------------------|
|----7-7-7-7-7------7-------7------------7-------7----8------------8--8----8----|
|------------------------------7-7-7-7-7----7-7----------8-8-8-8-8------8-------|

|-------------------------------------------------------------------------------|
|----------------7-7--7----7------------7--7----7-------------------------------|
|-5------------5--------------7-7-7-7-7------7-------7------------7-----7-------|
|----5-5-5-5-5------------------------------------------7-7-7-7-7---7-7---------|

|---------------------------------------------|
|---------------------------------------5-5-5-|
|-8------------8-8---8----5-----------5-------|
|----8-8-8-8-8-----8--------5-5-5-5-5---------|

|-------------------------------------------------------------------------------|
|-7------------7--7----7--------------------------------------------------------|
|----7-7-7-7-7------7-------7------------7-------7----8------------8--8----8----|
|------------------------------7-7-7-7-7----7-7----------8-8-8-8-8------8-------|

|-----------------------------|
|-----------------------------|
|-7--------7--5---------------|
|---7-7-7--------8--7--(0)----|
Comments