Morrison Van - Gloria Chords & Tabs

 

Gloria Chords & Tabs

Morrison Van Chords & Tabs

Version: 1 Type: Tab 0 ratings
1 star 2 stars 3 stars 4 stars 5 stars
comments

Gloria Tab

---------------------------------------------------------------------
-2-2-2-2-------------------------------------------------------------
-2-2-2-2-----20------------------------------------------------------
-1-1-1-1--20-20------------------------------------------------------
-0-0-0-0--30-20------------------------------------------------------
-0-0-0-0--20---------------------------------------------------------

Repeat 38x


Guitar solo
[ Tab from: http://www.guitartabs.cc/tabs/m/morrison_van/gloria_tab.html ]
---------------------------------------------------------------------
---------------------------------------------------------------------
---------------------------------------------------------------------
---------------------------------------------------------------------
-12-12-12-10-9-10----------------------------------------------------
-12-12-12-10-9-10----------------------------------------------------

Repeat 6x

---------0-----------------------------------------------------------
-2-------0-----------------------------------------------------------
-2-----2-0-----------------------------------------------------------
-1---2-2-0-----------------------------------------------------------
-----3-2-0-----------------------------------------------------------
-----2---0-----------------------------------------------------------

Repeat 4x
Comments