Morrison Van - Brown Eyed Girl Chords & Tabs

 

Brown Eyed Girl Chords & Tabs

Morrison Van Chords & Tabs

Version: 1 Type: Tab 4 ratings
1 star 2 stars 3 stars 4 stars 5 stars
comments

Brown Eyed Girl Tab

   
Song: Brown Eyed Girl
Artist:Van Morrison 

Intro
|----------------------------------------------------------10---|
|-12-13-15-13-12--17-18-20-18-17--12-13-15-13-12--10-10-10-10---|
|-12-14-16-14-12--17-19-21-19-17--12-14-16-14-12--11-11-12------|
|---------------------------------------------------------------|
|---------------------------------------------------------------|
|---------------------------------------------------------------|

Verse(lead) -the chords are G,C,G,D
|-3-----3-----|-1-----1-----|-3------3-----|-5-----5------|
|---0-----0---|---3-----3---|---0------0---|---7-----7----|
|-0---0-----0-|-3---3-----3-|-0---0------0-|-7---7-----7--|
|-------------|-------------|--------------|--------------|
|-------------|-------------|--------------|--------------|
|-------------|-------------|--------------|--------------|

2nd time through replace the 2nd G arpeggio with this fill:
|-3-5-7-5-3--5-----5---------|
|--------------7-----7-------|
|-0-5-7-5-0--7---7-----7-----|
|----------------------------|
|----------------------------|
|----------------------------|

3rd time through play as normal

4th time through replace the whole thing with this:
|-3-5-7-5-3--3-----5----|-3-5-7-5-3--5-----5------|
|--------------5-----5--|--------------7-----7----|
|-0-5-7-5-0--5---5-----5|-0-5-7-5-0--7---7-----7--|
|-----------------------|-------------------------|
|-----------------------|-------------------------|
|-----------------------|-------------------------|
[ Tab from: http://www.guitartabs.cc/tabs/m/morrison_van/brown_eyed_girl_tab.html ]
Chorus(lead) chords are C,D, G, Em
|-3-----3------5-----5-------3-5-3-2-0-------3---|
|---5-----5------7-----7-----------------3-3-3---|
|-5---5-----5--7---7-----7---0-0-0-0-0---4-5-----|
|------------------------------------------------|
|------------------------------------------------|
|------------------------------------------------|
                                1st Ending
|-3-3-3---5-5-5--3-5/7-5-3--|---------------|
|-5-5-5---7-7-7-------------|-12-12-10-8-7--|
|-5-5-5---7-7-7--0-5/7-5-0--|-12-12-11-9-7--|
|---------------------------|---------------|
|---------------------------|---------------|
|---------------------------|---------------|

Play Verse

Play Chorus without "1st Ending"
Replace 1st ending with this
Pre Bridge
|-5------5-------5------5-------5-------|
|---7------7-------7------7-------7-----|
|-7---7------7-------7------7-------7---|
|---------------------------------------|
|---------------------------------------|
|---------------------------------------|

Bridge-(sha la la)-G, C, G, D

Ending to bridge
|-3-5/7-5-3-------------------------------------|
|-------------3-3-3---2-------------------------|
|-0-5/7-5-0---4-5-4-0-3-------------------------|
|-----------------------------------------------|
|-----------------------------------------------|
|-----------------------3--3-3--3-3-3-3-3/12\0--|

Bass solo(for guitar)
|---------------------------------------|
|---------------------------------------|
|------------------0--------------------|
|-----------2-2-4-----------------------|
|-------2-3---------------2-3-5-5-3-2-0-|
|-3-3-3---------------3-3---------------|

Play Verse
Play Chorus w/out 1st ending
Play Pre-Bridge
PLay Bridge and fade
Comments