Morrisey - Irish Blood English Heart Chords & Tabs

 

Irish Blood English Heart Chords & Tabs

Morrisey Chords & Tabs

Version: 1 Type: Tab 0 ratings
1 star 2 stars 3 stars 4 stars 5 stars
comments

Irish Blood English Heart Tab

   
Made by: [Li'oN] 

Morrisey - Irish blood english heart tab + acoustic guitar conversion 
Intro/verse 
with Palm mute
E--------------I-------------I-------------I-------------I
H--------------I-------------I-------------I-------------I
G--55-55-55-55-I-55-77-55-77-I-55-44-55-44-I-55-44-55-44-I
D--77-55-77-55-I-55-55-55-55-I-33-33-33-33-I-33-33-33-33-I
A--------------I-------------I-------------I-------------I
E--------------I-------------I-------------I-------------I

  
E-------------------------------------------------------------------------I
H-------------------------------------------------------------------------I
G-------------------------------------------------------------------------I
D-10-10-10-10-10-10-10-10-12-12-12-12-12-12-12-12-10-10-10-10-10-10-10-10-I
A-8--8--8--8--8--8--8--8--10-10-10-10-10-10-10-10-8--8--8--8--8--8--8--8--I
E-------------------------------------------------------------------------I

  
E-----------------I-5---I
H-----------------I-5---I
G-----------------I-5---I
D-9-9-9-9-7-7-7-7-I-7---I
A-7-7-7-7-5-5-5-5-I-7---I
E-----------------I-5---I

  
E-------------------------------------------------------------------------I
H-------------------------------------------------------------------------I
G-------------------------------------------------------------------------I
D-10-10-10-10-10-10-10-10-12-12-12-12-12-12-12-12-14-14-14-14-14-14-14-14-I
A-8--8--8--8--8--8--8--8--10-10-10-10-10-10-10-10-12-12-12-12-12-12-12-12-I
E-------------------------------------------------------------------------I

          
E-------------------------I---------------I---------------I
H-------------------------I-5---8---7---6-I-5---8---7---6-I
G-------------------------I-5---5---5---5-I-5---5---5---5-I
D-16-16-16-16-17-17-17-17-I-5---5---5---5-I-5---5---5---5-I
A-14-14-14-14-15-15-15-15-I---------------I---------------I
E-------------------------I---------------I---------------I


With acoustic or western guitar it sounds nice when you play it like this:

Some of the chords used:
Am        [x 0 2 2 1 0]
Aadd9     [x 0 0 2 2 0]
Asus      [x 0 2 2 3 0]
Am/G      [x 0 2 2 1 3]
Am6       [x 0 2 2 1 2]
Am/F      [x x 2 2 1 1]
F         [1 3 3 2 1 1]
Fmaj7/#11 [1 3 3 2 0 0]

      Am Aadd9 Am Add9 Am Asus Am Asus F Fmaj7/#11 F Fmaj7/#11 F Fmaj7/#11 F Fmaj7/#11       
Irish blood, English   heart This I'm  made of - There is 
[ Tab from: http://www.guitartabs.cc/tabs/m/morrisey/irish_blood_english_heart_tab.html ]
      Am Aadd9 Am Add9 Am Asus Am Asus F Fmaj7/#11 F Fmaj7/#11 F Fmaj7/#11 F Fmaj7/#11       
      no one on        earth I'm     afraid of   And 

      Am Aadd9 Am Add9 Am Asus Am Asus F Fmaj7/#11 F Fmaj7/#11 F Fmaj7/#11 F Fmaj7/#11       
      no               regime can      buy or sell me 
      Am Aadd9 Am Add9 Am Asus Am Asus F Fmaj7/#11 F Fmaj7/#11 F Fmaj7/#11 F STOP       
                                                              I've been dreaming of a
F        G   
time when 
      F       Em           Am
to be English is not to be baneful to be 
F               G                 F       Em 
standing by the flag, not feeling shameful 
          Am Am/G Am6 Am/F x 2
racist or racial 

     Am Aadd9 Am Add9 Am Asus Am Asus F Fmaj7/#11 F Fmaj7/#11 F Fmaj7/#11 F Fmaj7/#11       
Irish blood, English   heart This I'm  made of - There is 

      Am Aadd9 Am Add9 Am Asus Am Asus F Fmaj7/#11 F Fmaj7/#11 F Fmaj7/#11 F Fmaj7/#11       
      no one on        earth I'm     afraid of   And 

      Am Aadd9 Am Add9 Am Asus Am Asus F Fmaj7/#11 F Fmaj7/#11 F Fmaj7/#11 F Fmaj7/#11       
      I will           die        with both of my hands                          un - 
      Am Aadd9 Am Add9 Am Asus Am Asus F Fmaj7/#11 F Fmaj7/#11 F Fmaj7/#11 F STOP       
      tied                                                     I've been dreaming of a

F        G   
time when 
    F           Em               Am Am/G Am6 Am/F x 2
the English are sick to death of Labour and
                                          F      G
Tories      and spit upon the name Oliver Cromwell
       F                Em                Am Am/G Am6 Am/F x 2
and denounce this royal line that still salute him 
and will salute him forever     
F  F 

Solo with chorus chords: F G F Em Am
Comments