Morphine - Whisper Chords & Tabs

 

Whisper Chords & Tabs

Morphine Chords & Tabs

Version: 1 Type: Tab 0 ratings
1 star 2 stars 3 stars 4 stars 5 stars
comments

Whisper Tab

Whisper - Morphine
Yes

Drop-D with slide

Main Riff
------------
------------
------------
-0--3-3-0-2-2/5--5/6-6-6-6~~~~-6/0--
[ Tab from: http://www.guitartabs.cc/tabs/m/morphine/whisper_tab.html ]
Break
-------------
-------------
---8-7--6-8-6-5--4-6-4-3--2--1--0----
0----------------------------------6-

"Whisper me your number..."
---------------
---------------
---------------
0------0-------0------0
Comments