Morissette Alanis - You Oughta Know Chords & Tabs

 

You Oughta Know Chords & Tabs

Morissette Alanis Chords & Tabs

Version: 1 Type: Bass Tab 0 ratings
1 star 2 stars 3 stars 4 stars 5 stars
comments

You Oughta Know Bass Tab

You oughta know - Alanis Morissette
bass tablature
Tabbed by Visscher@alg.frg.eur.nl

For the rhythm, look at the + above the tab; it represents the beat (4/4 beat, and
the dots are 16th notes to help you with the counting). The lyrics are placed in the
bar in which they are sung, but they are not always correctly spaced in comparison to
the notes. So don't use the lyrics to figure out the rhythm, but use the +'s and
dots! Sometimes, when Alanis sings real fast, the lyrics under a bar consist of two
lines. This is indicated by `...' after the first line and before the second.
The tab will not be 100% correct, because Flea improvises the whole thing (I think).
I've tried to tab it the way I think Flea plays it, but I'm not always sure. Use your
imagination! 
If you have corrections, suggestions better tabs etc, or if you enjoy my tab, please
mail to Visscher@alg.frg.eur.nl

Notation legend: h = hammer on; p = pull off; 
                 / = slide up; *x* = pluck note x (hard)

- - - - - - - - - - - - - - - - - - - - - - - - - - - - - - - - - - - -

VERSE 1


        | + . . . + . . . + . . . + . . . | + . . . + . . . + . . . + . . . |
--------|---------------------------------|---------------------------------|
--------|---------------------------------|---------------------------------|
--------|---------------------------------|---------------------------------|
--------|-2---2-----2-2-2-----2-------2---|-2-2---------2-2-----2-2-----2---|


| + . . . + . . . + . . . + . . . | + . . . + . . . + . . . + . . . |
|---------------------------------|---------------------------------|
|---------------------------------|---------------------------------|
|---------------------------------|---------------------------------|
|-2-2-----2-2-2-2-----2-------2---|-2-2---------2-2-----2-2-----2---|


| + . . . + . . . + . . . + . . . | + . . . + . . . + . . . + . . . |
|---------------------------------|---------------------------------|
|---------------------------------|---------------------------------|
|---------------------------------|---------------------------------|
|-2-2-------2-2-2-----2-------2---|-2-2-------2-2-2-----2-------2---|


| + . . . + . . . + . . . + . . . | + . . . + . . . + . . . + . . . |
|---------------------------------|---------------------------------|
|---------------------------------|---------------------------------|
|---------------------------------|-----------------------------0---|
|-2-2-------2-2-2-----2-2-----2---|-2-2-------2-2-2---2-2---2-------|


PRE-CHORUS

| + . . . + . . . + . . . + . . . | + . . . + . . . + . . . + . . . |
|---------------------------------|---------------------------------|
|-------------4-4-----------------|---------------------2-2-----1---|
|---------------------0---2-------|---------------------------------|
|-2-2-------------------------0---|-2-2---------2-2-----------------|

| + . . . + . . . + . . . + . . . | + . . . + . . . + . . . + . . . |
|---------------------------------|---------------------------------|
|-------------4-4-----------------|-------------2-2-----------------|
|---------------------0---2-------|---------------------0---2-------|
|-2-2-------------------------0---|-2-2-------------------------2---|

| + . . . + . . . + . . . + . . . | + . . . + . . . + . . . + . . . |
|---------------------------------|---------------------2---1-------|
|-------------4-4---------2-2-----|---------------------------------|
|---------------------0-----------|---------------------------------|
|-2-2-------------------------0---|-2-2---------2-2-------------0---|

| + . . . + . . . + . . . + . . . | + . . . + . . . + . . . + . . . |
|---------------------------------|---------------------------------|
|---------------------4-------2---|-----------4-4-4-----2-----------|
|---------------------------------|-------------------------4---0---|
|-2-2---------2-2---------------0-|-2-2-----------------------------|


CHORUS

| + . . . + . . . + . . . + . . . | + . . . + . . . + . . . + . . . |
|---------------------------------|---------------------------------|
|---------------------------------|---------------------------------|
|---------------------------------|---------------------------------|
|-2---2---2---2---2---2---2---2---|-0---0---0---0---0---0---0---0---|


| + . . . + . . . + . . . + . . . | + . . . + . . . + . . . + . . . |
|---------------------------------|---------------------------------|
|---------------------------------|---------------------------------|
|-0---0---0---0---0---0---0---0---|-------------------------4-4-2-0-|
|---------------------------------|-2---2---2---2---2---2-----------|

| + . . . + . . . + . . . + . . . | + . . . + . . . + . . . + . . . |
|---------------------------------|---------------------------------|
|---------------------------------|---------------------------------|
|---------------------------------|---------------------------------|
|-2---2---2---2---2---2---2---2---|-0---0---0---0---0---0---0---0---|


| + . . . + . . . + . . . + . . . | + . . . + . . . + . . . + . . . |
|---------------------------------|---------------------------------|
|---------------------------------|---------------------------------|
|-0---0---0---0---0---0---0---0-h-|-2---0-h-2---0-h-2---0-h-2---0-h-|
|---------------------------------|---------------------------------|

| + . . . + . . . + . . . + . . . |
|---------------------------------|
|---------------------2---4-------|
|-2-------------------------0-0---|
|---------------------------------|


VERSE 2

| + . . . + . . . + . . . + . . . | + . . . + . . . + . . . + . . . |
|---------------------------------|-------------------2-------------|
|---------------------2---1-------|-------------------------2h4-----|
|-----------------------------0---|-----------------------4---------|
|-2-2-------2-2-2-----------------|-2-2---------2-2-----------------|

| + . . . + . . . + . . . + . . . | + . . . + . . . + . . . + . . . |
|---------------------------------|---------------------------------|
|---------------------1---2-------|-----------------2---1-----------|
|---------------------------------|-------------------------0---2---|
|-2-2---------2-2-------------0---|-2-2---------2-------------------|

| + . . . + . . . + . . . + . . . | + . . . + . . . + . . . + . . . |
|---------------------------------|---------------------------------|
|-----------------------------2h4-|---------------------------------|
|---------------------0-----------|-------------------------4-------|
|-2-2----------2-2----------------|-2-2-------2-2-2-------------0---|

| + . . . + . . . + . . . + . . . | + . . . + . . . + . . . + . . . |
|---------------------------------|---------------------------------|
|---------------------------------|---------------------1---2-------|
|-------------------------0-0-2---|-----------------------------0---|
|-2-2---------2-2-----0-----------|-2-2---------2-2-----------------|

| + . . . + . . . + . . . + . . . | + . . . + . . . + . . . + . . . |
|---------------------------------|---------------------------------|
|-------------4-4-----2-------2---|-----------4-4-4-----2---4-------|
|---------------------------4-----|-----------------------------2---|
|-2-2-----------------------------|-2-2-----------------------------|

| + . . . + . . . + . . . + . . . | + . . . + . . . + . . . + . . . |
|---------------------------------|---------------------------------|
|-----------4-4-4-----------------|---------------------------------|
|---------------------0---2-------|---------------------------------|
|-2-2-------------------------0---|-2-2-------2-2-2/5---4---0-------|
[ Tab from: http://www.guitartabs.cc/tabs/m/morissette_alanis/you_oughta_know_btab.html ]
| + . . . + . . . + . . . + . . . | + . . . + . . . + . . . + . . . |
|---------------------------------|--------------------*2*----------|
|---------------------4---2-2-----|---------------------------------|
|-----------------------------0---|---------------------------------|
|-2-2---------2-2-----------------|-2-2---------2---2---------------|

| + . . . + . . . + . . . + . . . | + . . . + . . . + . . . + . . . |
|---------------------------------|---------------------------------|
|---------------------------------|---------------------------------|
|---------------------0---2-------|---------0-----0-2---2---0-------|
|-2-2-------2-2-2-------------0---|-2-2---2---------------------0---|


PRE-CHORUS

| + . . . + . . . + . . . + . . . | + . . . + . . . + . . . + . . . |
|---------------------------------|---------------------------------|
|---------------------------------|-------------2-2-----2---2-1-----|
|---------------------0---2-------|-----------------------------2---|
|-2---2-----2-2-2-2-----------0---|-2-2-----------------------------|

| + . . . + . . . + . . . + . . . | + . . . + . . . + . . . + . . . |
|---------------------------------|---------------------------------|
|---------------------------------|-----------------------1-2-------|
|---------------------0-----0-2---|-------------0-0-----2-------0---|
|-2-2---------2-2---------2-------|-2-2-----------------------------|

| + . . . + . . . + . . . + . . . | + . . . + . . . + . . . + . . . |
|---------------------------------|---------------------------------|
|-4-4-------4-4-4-----2---4-2-----|---------------------------------|
|-----------------------------4---|---------------------------------|
|---------------------------------|-2-2---------2-2---2-2---2-2-2---|

| + . . . + . . . + . . . + . . . | + . . . + . . . + . . . + . . . |
|---------------------------------|---------------------------------|
|-----------------------------2---|---------4-4-----2-2-------------|
|---------------------0---2-4-----|---------------4-------2-4-2-0---|
|-2-2---------2-2-----------------|-2-2-----------------------------|



CHORUS

| + . . . + . . . + . . . + . . . | + . . . + . . . + . . . + . . . |
|---------------------------------|---------------------------------|
|---------------------------------|---------------------------------|
|---------------------------------|---------------------------------|
|-2---2---2---2---2---2---2---2---|-0---0---0---0---0---0---0---0---|

| + . . . + . . . + . . . + . . . | + . . . + . . . + . . . + . . . |
|---------------------------------|---------------------------------|
|---------------------------------|-------------------------2-------|
|-0---0---0---0---0---0---0---0---|-2---2---2---2---2---2-----4-2-0-|
|---------------------------------|---------------------------------|

| + . . . + . . . + . . . + . . . | + . . . + . . . + . . . + . . . |
|---------------------------------|---------------------------------|
|---------------------------------|---------------------------------|
|---------------------------------|---------------------------------|
|-2---2---2---2---2---2---2---2---|-0---0---0---0---0---0---0---0---|

| + . . . + . . . + . . . + . . . | + . . . + . . . + . . . + . . . |
|---------------------------------|---------------------------------|
|---------------------------------|---------------------------------|
|-0---0---0---0---0---0---0---2-/-|-5---2-/-5---2-/-5---2-/-5---2---|
|---------------------------------|---------------------------------|


QUIET PART'
[Sixteen bars rest]

PRE-CHORUS


         | + . . . + . . . + . . . + . . . | + . . . + . . . + . . . + . . . |
---------|---------------------------------|---------------------------------|
---------|-------------1-2-----------------|-----------------------2-4-------|
---------|---------------------0---2-------|---------------------4-----4-0---|
---------|-2-2-------------------------0---|-2-2-------2-2-2-----------------|

| + . . . + . . . + . . . + . . . | + . . . + . . . + . . . + . . . |
|---------------------------------|---------------------------------|
|-------------------------2-------|---------------------------------|
|---------------------4-------0---|-----------------0---2h4p2p0-----|
|-2-2---------2-2-----------------|-2-2-------1-2---------------0---|

| + . . . + . . . + . . . + . . . | + . . . + . . . + . . . + . . . |
|---------------------------------|---------------------------------|
|-------------------------1---2---|-------------------1/2---1-------|
|---------------------------------|-----------------------------2---|
|-2-2-------2-2-2-----2-----------|-2-2-------2-2-2-----------------|


| + . . . + . . . + . . . + . . . | + . . . + . . . + . . . + . . . |
|---------------------------------|---------------------------------|
|-----------4-4-4-----2---1-------|---------------------------------|
|---------------------------0-2---|---------0---2---0---2---0-------|
|-2-2-----------------------------|-2-2-------------------------0---|

CHORUS

| + . . . + . . . + . . . + . . . | + . . . + . . . + . . . + . . . |
|---------------------------------|---------------------------------|
|---------------------------------|---------------------------------|
|---------------------------------|---------------------------------|
|-2---2---2---2---2---2---2---2---|-0---0---0---0---0---0---0---0---|

| + . . . + . . . + . . . + . . . | + . . . + . . . + . . . + . . . |
|---------------------------------|---------------------------------|
|---------------------------------|---------------------------------|
|-0---0---0---0---0---0---0---0---|-2---2---2---2---2---2---2---2---|
|---------------------------------|---------------------------------|

| + . . . + . . . + . . . + . . . | + . . . + . . . + . . . + . . . |
|---------------------------------|---------------------------------|
|---------------------------------|---------------------------------|
|---------------------------------|---------------------------------|
|-2---2---2---2---2---2---2---2---|-0---0---0---0---0---0---0---0---|

| + . . . + . . . + . . . + . . . | + . . . + . . . + . . . + . . . |
|---------------------------------|---------------------------------|
|---------------------------------|---------------------------------|
|-0---0---0---0---0---0---0---0---|-2---2---2---2---2---2---2---2---|
|---------------------------------|---------------------------------|

| + . . . + . . . + . . . + . . . |
|---------------------------------|
|---------------------------------|
|-2---2---2---2---2---2---2---2---|
|---------------------------------|

| + . . . + . . . + . . . + . . . | + . . . + . . . + . . . + . . . |
|---------------------------------|---------------------------------|
|---------------------------------|---------------------------------|
|---------------------------------|---------------------------------|
|-2---2---2---2---2---2---2---2---|-0---0---0---0---0---0---0---0---|

| + . . . + . . . + . . . + . . . | + . . . + . . . + . . . + . . . |
|---------------------------------|---------------------------------|
|---------------------------------|---------------------4-4-4-2-----|
|-0---0---0---0---0---0---0---0---|-2---2---2---2---2-----------4-2-|
|---------------------------------|---------------------------------|

| + . . . + . . . + . . . + . . . | + . . . + . . . + . . . + . . . |
|---------------------------------|---------------------------------|
|---------------------------------|---------------------------------|
|---------------------------------|---------------------3---2---1---|
|-2---2---2---2---2---2---2---2---|-0---0---0---0---0---------------|


| + . . . + . . . + . . . + . . . | + . . . + . . . + . . . + . . . |
|---------------------------------|---------------------------------|
|---------------------------------|---------------------------------|
|-0---0---0---0---0---0---0---0---|-2---2---2-----------------------|
|---------------------------------|-------------0---2---0---2---0---|


- - - - - - - - - - - - - - - - - - - - - - - - - - - - - - - - - - - -

Submitted by:  Louis Visscher (Visscher@alg.frg.eur.nl)

Comments